  0
SECTION
  2
HEADER
  9
$ACADVER
  1
AC1009
  9
$INSBASE
 10
0.0
 20
0.0
 30
0.0
  9
$EXTMIN
 10
0.0
 20
0.0
 30
0.0
  9
$EXTMAX
 10
4080.0
 20
2700.0
 30
0.0
  9
$LIMMIN
 10
-2216.6999999999998
 20
-1610.425
  9
$LIMMAX
 10
2291.6999999999998
 20
1450.425
  9
$ORTHOMODE
 70
     0
  9
$REGENMODE
 70
     1
  9
$FILLMODE
 70
     1
  9
$QTEXTMODE
 70
     0
  9
$MIRRTEXT
 70
     1
  9
$DRAGMODE
 70
     2
  9
$LTSCALE
 40
1.0
  9
$OSMODE
 70
    37
  9
$ATTMODE
 70
     1
  9
$TEXTSIZE
 40
45.0
  9
$TRACEWID
 40
0.05
  9
$TEXTSTYLE
  7
STANDARD
  9
$CLAYER
  8
0
  9
$CELTYPE
  6
CONTINUOUS
  9
$CECOLOR
 62
   256
  9
$DIMSCALE
 40
1.0
  9
$DIMASZ
 40
0.18
  9
$DIMEXO
 40
0.0625
  9
$DIMDLI
 40
0.38
  9
$DIMRND
 40
0.0
  9
$DIMDLE
 40
0.0
  9
$DIMEXE
 40
0.18
  9
$DIMTP
 40
0.0
  9
$DIMTM
 40
0.0
  9
$DIMTXT
 40
0.18
  9
$DIMCEN
 40
0.09
  9
$DIMTSZ
 40
0.0
  9
$DIMTOL
 70
     0
  9
$DIMLIM
 70
     0
  9
$DIMTIH
 70
     1
  9
$DIMTOH
 70
     1
  9
$DIMSE1
 70
     0
  9
$DIMSE2
 70
     0
  9
$DIMTAD
 70
     0
  9
$DIMZIN
 70
     0
  9
$DIMBLK
  1

  9
$DIMASO
 70
     1
  9
$DIMSHO
 70
     1
  9
$DIMPOST
  1

  9
$DIMAPOST
  1

  9
$DIMALT
 70
     0
  9
$DIMALTD
 70
     2
  9
$DIMALTF
 40
25.399999999999999
  9
$DIMLFAC
 40
1.0
  9
$DIMTOFL
 70
     0
  9
$DIMTVP
 40
0.0
  9
$DIMTIX
 70
     0
  9
$DIMSOXD
 70
     0
  9
$DIMSAH
 70
     0
  9
$DIMBLK1
  1

  9
$DIMBLK2
  1

  9
$DIMSTYLE
  2
STANDARD
  9
$DIMCLRD
 70
     0
  9
$DIMCLRE
 70
     0
  9
$DIMCLRT
 70
     0
  9
$DIMTFAC
 40
1.0
  9
$DIMGAP
 40
0.09
  9
$LUNITS
 70
     2
  9
$LUPREC
 70
     4
  9
$SKETCHINC
 40
0.1
  9
$FILLETRAD
 40
0.0
  9
$AUNITS
 70
     0
  9
$AUPREC
 70
     0
  9
$MENU
  1
acad
  9
$ELEVATION
 40
0.0
  9
$PELEVATION
 40
0.0
  9
$THICKNESS
 40
0.0
  9
$LIMCHECK
 70
     0
  9
$BLIPMODE
 70
     0
  9
$CHAMFERA
 40
0.0
  9
$CHAMFERB
 40
0.0
  9
$SKPOLY
 70
     0
  9
$TDCREATE
 40
2305824.1747859032
  9
$TDUPDATE
 40
2457770.662583102
  9
$TDINDWG
 40
0.0016031481
  9
$TDUSRTIMER
 40
0.0016031019
  9
$USRTIMER
 70
     1
  9
$ANGBASE
 50
0.0
  9
$ANGDIR
 70
     0
  9
$PDMODE
 70
     0
  9
$PDSIZE
 40
1.0
  9
$PLINEWID
 40
0.0
  9
$COORDS
 70
     1
  9
$SPLFRAME
 70
     0
  9
$SPLINETYPE
 70
     6
  9
$SPLINESEGS
 70
     8
  9
$ATTDIA
 70
     1
  9
$ATTREQ
 70
     1
  9
$HANDLING
 70
     1
  9
$HANDSEED
  5
481
  9
$SURFTAB1
 70
     6
  9
$SURFTAB2
 70
     6
  9
$SURFTYPE
 70
     6
  9
$SURFU
 70
     6
  9
$SURFV
 70
     6
  9
$UCSNAME
  2

  9
$UCSORG
 10
0.0
 20
0.0
 30
0.0
  9
$UCSXDIR
 10
1.0
 20
0.0
 30
0.0
  9
$UCSYDIR
 10
0.0
 20
1.0
 30
0.0
  9
$PUCSNAME
  2

  9
$PUCSORG
 10
0.0
 20
0.0
 30
0.0
  9
$PUCSXDIR
 10
1.0
 20
0.0
 30
0.0
  9
$PUCSYDIR
 10
0.0
 20
1.0
 30
0.0
  9
$USERI1
 70
     0
  9
$USERI2
 70
     0
  9
$USERI3
 70
     0
  9
$USERI4
 70
     0
  9
$USERI5
 70
     0
  9
$USERR1
 40
0.0
  9
$USERR2
 40
0.0
  9
$USERR3
 40
0.0
  9
$USERR4
 40
0.0
  9
$USERR5
 40
0.0
  9
$WORLDVIEW
 70
     1
  9
$SHADEDGE
 70
     3
  9
$SHADEDIF
 70
    70
  9
$TILEMODE
 70
     1
  9
$MAXACTVP
 70
    16
  9
$PLIMCHECK
 70
     0
  9
$PEXTMIN
 10
1.0000000000000000E+020
 20
1.0000000000000000E+020
 30
1.0000000000000000E+020
  9
$PEXTMAX
 10
-1.0000000000000000E+020
 20
-1.0000000000000000E+020
 30
-1.0000000000000000E+020
  9
$PLIMMIN
 10
0.0
 20
0.0
  9
$PLIMMAX
 10
12.0
 20
9.0
  9
$UNITMODE
 70
     0
  9
$VISRETAIN
 70
     0
  9
$PLINEGEN
 70
     1
  9
$PSLTSCALE
 70
     0
  0
ENDSEC
  0
SECTION
  2
TABLES
  0
TABLE
  2
VPORT
 70
     1
  0
VPORT
  2
*ACTIVE
 70
     0
 10
0.0
 20
0.0
 11
1.0
 21
1.0
 12
2448.4330551327148
 22
1599.4425366153689
 13
0.0
 23
0.0
 14
1.0
 24
1.0
 15
0.0
 25
0.0
 16
0.0
 26
0.0
 36
1.0
 17
0.0
 27
0.0
 37
0.0
 40
5970.5221697902507
 41
2.3741851368970011
 42
50.0
 43
0.0
 44
0.0
 50
0.0
 51
0.0
 71
     0
 72
   100
 73
     1
 74
     1
 75
     0
 76
     0
 77
     0
 78
     0
  0
ENDTAB
  0
TABLE
  2
LTYPE
 70
     2
  0
LTYPE
  2
CONTINUOUS
 70
     0
  3
Solid line
 72
    65
 73
     0
 40
0.0
  0
ENDTAB
  0
TABLE
  2
LAYER
 70
     5
  0
LAYER
  2
0
 70
     0
 62
     7
  6
CONTINUOUS
  0
LAYER
  2
LAYER0002
 70
     0
 62
     7
  6
CONTINUOUS
  0
LAYER
  2
LAYER0003
 70
     0
 62
     7
  6
CONTINUOUS
  0
LAYER
  2
LAYER0014
 70
     0
 62
     7
  6
CONTINUOUS
  0
LAYER
  2
LAYER0064
 70
     0
 62
     7
  6
CONTINUOUS
  0
ENDTAB
  0
TABLE
  2
STYLE
 70
     2
  0
STYLE
  2
STANDARD
 70
     0
 40
0.0
 41
0.8
 50
0.0
 71
     0
 42
45.0
  3
txt.shx
  4
bigfont.shx
  0
STYLE
  2
ANNOTATIVE
 70
     0
 40
0.0
 41
1.0
 50
0.0
 71
     0
 42
0.2
  3
txt
  4

  0
ENDTAB
  0
TABLE
  2
VIEW
 70
     1
  0
VIEW
  2
QQQQ
 70
     0
 40
3060.8499999999999
 10
37.5
 20
-80.0
 41
4508.3999999999987
 11
0.0
 21
0.0
 31
1.0
 12
100.0
 22
100.0
 32
0.0
 42
50.0
 43
0.0
 44
0.0
 50
0.0
 71
     0
  0
ENDTAB
  0
TABLE
  2
UCS
 70
     0
  0
ENDTAB
  0
TABLE
  2
APPID
 70
     5
  0
APPID
  2
ACAD
 70
     0
  0
APPID
  2
ACADANNOTATIVE
 70
     0
  0
APPID
  2
ACAD_NAV_VCDISPLAY
 70
     0
  0
APPID
  2
ACAD_MLEADERVER
 70
     0
  0
APPID
  2
ACAD_EXEMPT_FROM_CAD_STANDARDS
 70
     0
  0
ENDTAB
  0
TABLE
  2
DIMSTYLE
 70
     2
  0
DIMSTYLE
  2
STANDARD
 70
     0
  3

  4

  5

  6

  7

 40
1.0
 41
0.18
 42
0.0625
 43
0.38
 44
0.18
 45
0.0
 46
0.0
 47
0.0
 48
0.0
140
0.18
141
0.09
142
0.0
143
25.399999999999999
144
1.0
145
0.0
146
1.0
147
0.09
 71
     0
 72
     0
 73
     1
 74
     1
 75
     0
 76
     0
 77
     0
 78
     0
170
     0
171
     2
172
     0
173
     0
174
     0
175
     0
176
     0
177
     0
178
     0
  0
DIMSTYLE
  2
ANNOTATIVE
 70
     0
  3

  4

  5

  6

  7

 40
1.0
 41
0.18
 42
0.0625
 43
0.38
 44
0.18
 45
0.0
 46
0.0
 47
0.0
 48
0.0
140
0.18
141
0.09
142
0.0
143
25.399999999999999
144
1.0
145
0.0
146
1.0
147
0.09
 71
     0
 72
     0
 73
     1
 74
     1
 75
     0
 76
     0
 77
     0
 78
     0
170
     0
171
     2
172
     0
173
     0
174
     0
175
     0
176
     0
177
     0
178
     0
  0
ENDTAB
  0
ENDSEC
  0
SECTION
  2
BLOCKS
  0
BLOCK
  8
0
  2
$MODEL_SPACE
 70
     0
 10
0.0
 20
0.0
 30
0.0
  3
$MODEL_SPACE
  1

  0
ENDBLK
  5
413
  8
0
  0
BLOCK
 67
     1
  8
0
  2
$PAPER_SPACE
 70
     0
 10
0.0
 20
0.0
 30
0.0
  3
$PAPER_SPACE
  1

  0
ENDBLK
  5
40F
 67
     1
  8
0
  0
BLOCK
  8
0
  2
_OPEN30
 70
     0
 10
0.0
 20
0.0
 30
0.0
  3
_OPEN30
  1

  0
LINE
  5
3F
  8
LAYER0002
  6
CONTINUOUS
 62
     0
 10
0.0
 20
0.0
 30
0.0
 11
-0.9659258299999999
 21
0.25881905
 31
0.0
  0
LINE
  5
40
  8
LAYER0002
  6
CONTINUOUS
 62
     0
 10
0.0
 20
0.0
 30
0.0
 11
-0.9659258299999999
 21
-0.25881905
 31
0.0
  0
ENDBLK
  5
41
  8
0
  0
ENDSEC
  0
SECTION
  2
ENTITIES
  0
LINE
  5
42
  8
LAYER0014
  6
CONTINUOUS
 62
     7
 10
4080.0
 20
2700.0
 30
0.0
 11
0.0
 21
2700.0
 31
0.0
  0
LINE
  5
43
  8
LAYER0014
  6
CONTINUOUS
 62
     7
 10
4080.0
 20
0.0
 30
0.0
 11
4080.0
 21
2700.0
 31
0.0
  0
LINE
  5
44
  8
LAYER0014
  6
CONTINUOUS
 62
     7
 10
4080.0
 20
150.0
 30
0.0
 11
2580.0
 21
150.0
 31
0.0
  0
LINE
  5
45
  8
LAYER0014
  6
CONTINUOUS
 62
     7
 10
3705.0
 20
600.0
 30
0.0
 11
3705.0
 21
150.0
 31
0.0
  0
LINE
  5
46
  8
LAYER0014
  6
CONTINUOUS
 62
     7
 10
3180.0
 20
600.0
 30
0.0
 11
3180.0
 21
150.0
 31
0.0
  0
LINE
  5
47
  8
LAYER0014
  6
CONTINUOUS
 62
     7
 10
2880.0
 20
600.0
 30
0.0
 11
2880.0
 21
150.0
 31
0.0
  0
LINE
  5
48
  8
LAYER0014
  6
CONTINUOUS
 62
     7
 10
2580.0
 20
600.0
 30
0.0
 11
2580.0
 21
0.0
 31
0.0
  0
LINE
  5
49
  8
LAYER0014
  6
CONTINUOUS
 62
     7
 10
4080.0
 20
600.0
 30
0.0
 11
2580.0
 21
600.0
 31
0.0
  0
LINE
  5
4A
  8
LAYER0014
  6
CONTINUOUS
 62
     7
 10
4080.0
 20
525.0
 30
0.0
 11
2580.0
 21
525.0
 31
0.0
  0
LINE
  5
4B
  8
LAYER0014
  6
CONTINUOUS
 62
     7
 10
4080.0
 20
450.0
 30
0.0
 11
2580.0
 21
450.0
 31
0.0
  0
LINE
  5
4C
  8
LAYER0014
  6
CONTINUOUS
 62
     7
 10
4080.0
 20
375.0
 30
0.0
 11
2580.0
 21
375.0
 31
0.0
  0
LINE
  5
4D
  8
LAYER0014
  6
CONTINUOUS
 62
     7
 10
4080.0
 20
300.0
 30
0.0
 11
2580.0
 21
300.0
 31
0.0
  0
LINE
  5
4E
  8
LAYER0014
  6
CONTINUOUS
 62
     7
 10
0.0
 20
0.0
 30
0.0
 11
4080.0
 21
0.0
 31
0.0
  0
LINE
  5
4F
  8
LAYER0014
  6
CONTINUOUS
 62
     7
 10
0.0
 20
2700.0
 30
0.0
 11
0.0
 21
0.0
 31
0.0
  0
LINE
  5
50
  8
LAYER0014
  6
CONTINUOUS
 62
     7
 10
4080.0
 20
225.0
 30
0.0
 11
2580.0
 21
225.0
 31
0.0
  0
TEXT
  5
51
  8
LAYER0014
 62
     4
 10
2658.0
 20
540.0
 30
0.0
 40
45.0
  1
品　　名
 41
0.7164179104477614
 72
     5
 11
2802.0
 21
540.0
 31
0.0
  0
TEXT
  5
52
  8
LAYER0014
 62
     4
 10
2958.0
 20
540.0
 30
0.0
 40
45.0
  1
品　　番
 41
0.7058823529411765
 72
     5
 11
3102.0
 21
540.0
 31
0.0
  0
TEXT
  5
53
  8
LAYER0003
 62
     4
 10
3250.5000000000018
 20
390.0
 30
0.0
 40
45.0
  1
\U+03C6　６０\U+00D7　７００
 41
0.6967741935483844
 72
     5
 11
3574.5
 21
390.0
 31
0.0
  0
TEXT
  5
54
  8
LAYER0003
 62
     4
 10
3250.5000000000018
 20
465.0
 30
0.0
 40
45.0
  1
\U+03C6　６０\U+00D7　５００
 41
0.6967741935483842
 72
     5
 11
3574.5
 21
465.0
 31
0.0
  0
TEXT
  5
55
  8
LAYER0003
 62
     4
 10
3250.5000000000018
 20
315.0
 30
0.0
 40
45.0
  1
\U+03C6１００\U+00D7１０００
 41
0.6967741935483844
 72
     5
 11
3574.5
 21
315.0
 31
0.0
  0
TEXT
  5
56
  8
LAYER0003
 62
     4
 10
3250.5000000000018
 20
240.0
 30
0.0
 40
45.0
  1
\U+03C6１００\U+00D7１２００
 41
0.6967741935483844
 72
     5
 11
3574.5
 21
240.0
 31
0.0
  0
TEXT
  5
57
  8
LAYER0003
 62
     4
 10
3250.5000000000018
 20
165.0
 30
0.0
 40
45.0
  1
\U+03C6１００\U+00D7１５００
 41
0.6967741935483842
 72
     5
 11
3574.5
 21
165.0
 31
0.0
  0
TEXT
  5
58
  8
0
 62
     4
 10
2712.0
 20
390.0
 30
0.0
 40
45.0
  1
杭
 41
0.8571428571428572
 72
     5
 11
2748.0
 21
390.0
 31
0.0
  0
TEXT
  5
59
  8
0
 62
     4
 10
2904.0
 20
390.0
 30
0.0
 40
45.0
  1
ＰＷＤＫ６０７
 41
0.6999999999999998
 72
     5
 11
3156.0
 21
390.0
 31
0.0
  0
TEXT
  5
5A
  8
0
 62
     4
 10
3820.5
 20
390.0
 30
0.0
 40
45.0
  1
　１．７
 41
0.7272727272727342
 72
     5
 11
3964.5000000000018
 21
390.0
 31
0.0
  0
TEXT
  5
5B
  8
0
 62
     4
 10
2676.0
 20
315.0
 30
0.0
 40
45.0
  1
一本杭
 41
0.72
 72
     5
 11
2784.0
 21
315.0
 31
0.0
  0
TEXT
  5
5C
  8
0
 62
     4
 10
3748.5
 20
540.0
 30
0.0
 40
45.0
  1
参考重量（ｋｇ）
 41
0.7272727272727271
 72
     5
 11
4036.5
 21
540.0
 31
0.0
  0
TEXT
  5
5D
  8
0
 62
     4
 10
2712.0
 20
465.0
 30
0.0
 40
45.0
  1
杭
 41
0.8571428571428572
 72
     5
 11
2748.0
 21
465.0
 31
0.0
  0
TEXT
  5
5E
  8
0
 62
     4
 10
2904.0
 20
465.0
 30
0.0
 40
45.0
  1
ＰＷＳＫ６０５
 41
0.6999999999999998
 72
     5
 11
3156.0
 21
465.0
 31
0.0
  0
TEXT
  5
5F
  8
0
 62
     4
 10
3820.5
 20
465.0
 30
0.0
 40
45.0
  1
　１．２
 41
0.7272727272727342
 72
     5
 11
3964.5000000000018
 21
465.0
 31
0.0
  0
TEXT
  5
60
  8
0
 62
     4
 10
2886.0
 20
315.0
 30
0.0
 40
45.0
  1
ＰＷＳＫ１０１０
 41
0.7007299270072992
 72
     5
 11
3174.0
 21
315.0
 31
0.0
  0
TEXT
  5
61
  8
0
 62
     4
 10
3820.5
 20
315.0
 30
0.0
 40
45.0
  1
　６．９
 41
0.7272727272727341
 72
     5
 11
3964.5000000000018
 21
315.0
 31
0.0
  0
TEXT
  5
62
  8
0
 62
     4
 10
2676.0
 20
240.0
 30
0.0
 40
45.0
  1
一本杭
 41
0.72
 72
     5
 11
2784.0
 21
240.0
 31
0.0
  0
TEXT
  5
63
  8
0
 62
     4
 10
2886.0
 20
240.0
 30
0.0
 40
45.0
  1
ＰＷＳＫ１０１２
 41
0.6956521739130435
 72
     5
 11
3174.0
 21
240.0
 31
0.0
  0
TEXT
  5
64
  8
0
 62
     4
 10
3820.5
 20
240.0
 30
0.0
 40
45.0
  1
　８．４
 41
0.7272727272727341
 72
     5
 11
3964.5000000000018
 21
240.0
 31
0.0
  0
TEXT
  5
65
  8
0
 62
     4
 10
3280.5
 20
540.0
 30
0.0
 40
45.0
  1
呼称寸法　（ｍｍ）
 41
0.7200000000000003
 72
     5
 11
3604.5
 21
540.0
 31
0.0
  0
TEXT
  5
66
  8
0
 62
     4
 10
2676.0
 20
165.0
 30
0.0
 40
45.0
  1
一本杭
 41
0.72
 72
     5
 11
2784.0
 21
165.0
 31
0.0
  0
TEXT
  5
67
  8
0
 62
     4
 10
2886.0
 20
165.0
 30
0.0
 40
45.0
  1
ＰＷＳＫ１０１５
 41
0.6956521739130434
 72
     5
 11
3174.0
 21
165.0
 31
0.0
  0
TEXT
  5
68
  8
0
 62
     4
 10
3820.5
 20
165.0
 30
0.0
 40
45.0
  1
１０．５
 41
0.7272727272727341
 72
     5
 11
3964.5000000000018
 21
165.0
 31
0.0
  0
LINE
  5
6B
  8
0
  6
CONTINUOUS
 62
     3
 10
3395.742530760001
 20
2091.0369068499999
 30
0.0
 11
3455.7425307600001
 21
2091.0369068499999
 31
0.0
  0
LINE
  5
6C
  8
0
  6
CONTINUOUS
 62
     3
 10
3455.7425307600001
 20
2091.0369068499999
 30
0.0
 11
3455.7425307600001
 21
1651.0369068499999
 31
0.0
  0
LINE
  5
6D
  8
0
  6
CONTINUOUS
 62
     3
 10
3395.742530760001
 20
1651.0369068499999
 30
0.0
 11
3395.742530760001
 21
2091.0369068499999
 31
0.0
  0
LINE
  5
6E
  8
0
  6
CONTINUOUS
 62
     3
 10
3425.7425307600001
 20
1591.0369068499999
 30
0.0
 11
3395.742530760001
 21
1651.0369068499999
 31
0.0
  0
LINE
  5
6F
  8
0
  6
CONTINUOUS
 62
     3
 10
3455.7425307600001
 20
1651.0369068499999
 30
0.0
 11
3425.7425307600001
 21
1591.0369068499999
 31
0.0
  0
LINE
  5
70
  8
0
  6
CONTINUOUS
 62
     3
 10
2695.7425307600001
 20
2091.0369068499999
 30
0.0
 11
2755.7425307600001
 21
2091.0369068499999
 31
0.0
  0
LINE
  5
71
  8
0
  6
CONTINUOUS
 62
     3
 10
2755.7425307600001
 20
2091.0369068499999
 30
0.0
 11
2755.7425307600001
 21
1451.0369068499999
 31
0.0
  0
LINE
  5
72
  8
0
  6
CONTINUOUS
 62
     3
 10
2695.7425307600001
 20
1451.0369068499999
 30
0.0
 11
2695.7425307600001
 21
2091.0369068499999
 31
0.0
  0
LINE
  5
73
  8
0
  6
CONTINUOUS
 62
     3
 10
2725.7425307600001
 20
1391.0369068499999
 30
0.0
 11
2695.7425307600001
 21
1451.0369068499999
 31
0.0
  0
LINE
  5
74
  8
0
  6
CONTINUOUS
 62
     3
 10
2755.7425307600001
 20
1451.0369068499999
 30
0.0
 11
2725.7425307600001
 21
1391.0369068499999
 31
0.0
  0
CIRCLE
  5
75
  8
0
  6
CONTINUOUS
 62
     3
 10
3425.7425307600001
 20
2291.0369068499999
 30
0.0
 40
30.0
  0
CIRCLE
  5
76
  8
0
  6
CONTINUOUS
 62
     3
 10
2725.7425307600001
 20
2291.0369068499999
 30
0.0
 40
30.0
  0
LINE
  5
77
  8
0
  6
CONTINUOUS
 62
     3
 10
1975.7425307599999
 20
2091.0369068499999
 30
0.0
 11
1975.7425307599999
 21
1191.0369068499999
 31
0.0
  0
LINE
  5
78
  8
0
  6
CONTINUOUS
 62
     3
 10
2075.7425307600001
 20
1191.0369068499999
 30
0.0
 11
2075.7425307600001
 21
2091.0369068499999
 31
0.0
  0
LINE
  5
79
  8
0
  6
CONTINUOUS
 62
     3
 10
2075.7425307600001
 20
2091.0369068499999
 30
0.0
 11
1975.7425307599999
 21
2091.0369068499999
 31
0.0
  0
CIRCLE
  5
7A
  8
0
  6
CONTINUOUS
 62
     3
 10
2025.7425307599999
 20
2291.0369068499999
 30
0.0
 40
50.0
  0
LINE
  5
7B
  8
0
  6
CONTINUOUS
 62
     3
 10
1275.7425307599999
 20
2091.0369068499999
 30
0.0
 11
1275.7425307599999
 21
991.03690685000015
 31
0.0
  0
LINE
  5
7C
  8
0
  6
CONTINUOUS
 62
     3
 10
1375.7425307599999
 20
991.03690685000015
 30
0.0
 11
1375.7425307599999
 21
2091.0369068499999
 31
0.0
  0
LINE
  5
7D
  8
0
  6
CONTINUOUS
 62
     3
 10
1375.7425307599999
 20
2091.0369068499999
 30
0.0
 11
1275.7425307599999
 21
2091.0369068499999
 31
0.0
  0
CIRCLE
  5
7E
  8
0
  6
CONTINUOUS
 62
     3
 10
1325.7425307599999
 20
2291.0369068499999
 30
0.0
 40
50.0
  0
LINE
  5
7F
  8
0
  6
CONTINUOUS
 62
     3
 10
2025.74252486
 20
1091.0369068499999
 30
0.0
 11
1975.7425307599999
 21
1191.0369068499999
 31
0.0
  0
LINE
  5
80
  8
0
  6
CONTINUOUS
 62
     3
 10
2075.7425307600001
 20
1191.0369068499999
 30
0.0
 11
2025.7425307599999
 21
1091.0369068499999
 31
0.0
  0
LINE
  5
81
  8
0
  6
CONTINUOUS
 62
     3
 10
1325.74252486
 20
891.0369068499997
 30
0.0
 11
1275.7425307599999
 21
991.03690685000015
 31
0.0
  0
LINE
  5
82
  8
0
  6
CONTINUOUS
 62
     3
 10
1375.7425307599999
 20
991.03690685000015
 30
0.0
 11
1325.7425307599999
 21
891.0369068499997
 31
0.0
  0
LINE
  5
83
  8
0
  6
CONTINUOUS
 62
     3
 10
575.7425307599998
 20
2091.0369068499999
 30
0.0
 11
575.7425307599998
 21
691.03690685000015
 31
0.0
  0
LINE
  5
84
  8
0
  6
CONTINUOUS
 62
     3
 10
675.7425307599998
 20
691.03690685000015
 30
0.0
 11
675.7425307599998
 21
2091.0369068499999
 31
0.0
  0
LINE
  5
85
  8
0
  6
CONTINUOUS
 62
     3
 10
675.7425307599998
 20
2091.0369068499999
 30
0.0
 11
575.7425307599998
 21
2091.0369068499999
 31
0.0
  0
CIRCLE
  5
86
  8
0
  6
CONTINUOUS
 62
     3
 10
625.7425307599998
 20
2291.0369068499999
 30
0.0
 40
50.0
  0
LINE
  5
87
  8
0
  6
CONTINUOUS
 62
     3
 10
625.74252486
 20
591.03690685000015
 30
0.0
 11
575.7425307599998
 21
691.03690685000015
 31
0.0
  0
LINE
  5
88
  8
0
  6
CONTINUOUS
 62
     3
 10
675.7425307599998
 20
691.03690685000015
 30
0.0
 11
625.7425307599998
 21
591.03690685000015
 31
0.0
  0
CIRCLE
  5
89
  8
0
  6
CONTINUOUS
 62
     2
 10
3425.7425307600001
 20
2291.0369068499999
 30
0.0
 40
10.0
  0
CIRCLE
  5
8A
  8
0
  6
CONTINUOUS
 62
     2
 10
3425.7425307600001
 20
2291.0369068499999
 30
0.0
 40
20.0
  0
CIRCLE
  5
8B
  8
0
  6
CONTINUOUS
 62
     2
 10
2725.7425307600001
 20
2291.0369068499999
 30
0.0
 40
10.0
  0
CIRCLE
  5
8C
  8
0
  6
CONTINUOUS
 62
     2
 10
2725.7425307600001
 20
2291.0369068499999
 30
0.0
 40
20.0
  0
LINE
  5
8D
  8
0
  6
CONTINUOUS
 62
     2
 10
3445.7425337000009
 20
2091.0369068499999
 30
0.0
 11
3445.7425337000009
 21
2071.0369003699998
 31
0.0
  0
LINE
  5
8E
  8
0
  6
CONTINUOUS
 62
     2
 10
3445.7425337000009
 20
2051.0369027299998
 30
0.0
 11
3445.7425337000009
 21
1971.03690332
 31
0.0
  0
LINE
  5
8F
  8
0
  6
CONTINUOUS
 62
     2
 10
3445.7425337000009
 20
1951.03690568
 30
0.0
 11
3445.7425337000009
 21
1871.03690626
 31
0.0
  0
LINE
  5
90
  8
0
  6
CONTINUOUS
 62
     2
 10
3445.7425337000009
 20
1851.0368997800001
 30
0.0
 11
3445.7425337000009
 21
1771.03690037
 31
0.0
  0
LINE
  5
91
  8
0
  6
CONTINUOUS
 62
     2
 10
3445.7425337000009
 20
1751.0369027300001
 30
0.0
 11
3445.7425337000009
 21
1671.03690332
 31
0.0
  0
LINE
  5
92
  8
0
  6
CONTINUOUS
 62
     2
 10
3425.74253606
 20
2091.0369068499999
 30
0.0
 11
3425.74253606
 21
2011.03690744
 31
0.0
  0
LINE
  5
93
  8
0
  6
CONTINUOUS
 62
     2
 10
3425.74253606
 20
1991.0369009599999
 30
0.0
 11
3425.74253606
 21
1911.03690155
 31
0.0
  0
LINE
  5
94
  8
0
  6
CONTINUOUS
 62
     2
 10
3425.74253606
 20
1891.0369039100001
 30
0.0
 11
3425.74253606
 21
1811.0369045
 31
0.0
  0
LINE
  5
95
  8
0
  6
CONTINUOUS
 62
     2
 10
3425.74253606
 20
1791.0369068499999
 30
0.0
 11
3425.74253606
 21
1711.03690744
 31
0.0
  0
LINE
  5
96
  8
0
  6
CONTINUOUS
 62
     2
 10
3425.74253606
 20
1691.0369009599999
 30
0.0
 11
3425.74253606
 21
1651.03690568
 31
0.0
  0
LINE
  5
97
  8
0
  6
CONTINUOUS
 62
     2
 10
3405.7425295799999
 20
2091.0369068499999
 30
0.0
 11
3405.7425295799999
 21
2031.0369050899999
 31
0.0
  0
LINE
  5
98
  8
0
  6
CONTINUOUS
 62
     2
 10
3405.7425295799999
 20
2011.03690744
 30
0.0
 11
3405.7425295799999
 21
1931.0369080299999
 31
0.0
  0
LINE
  5
99
  8
0
  6
CONTINUOUS
 62
     2
 10
3405.7425295799999
 20
1911.03690155
 30
0.0
 11
3405.7425295799999
 21
1831.0369021399999
 31
0.0
  0
LINE
  5
9A
  8
0
  6
CONTINUOUS
 62
     2
 10
3405.7425295799999
 20
1811.0369045
 30
0.0
 11
3405.7425295799999
 21
1731.0369050899999
 31
0.0
  0
LINE
  5
9B
  8
0
  6
CONTINUOUS
 62
     2
 10
3405.7425295799999
 20
1711.03690744
 30
0.0
 11
3405.7425295799999
 21
1651.03690568
 31
0.0
  0
LINE
  5
9C
  8
0
  6
CONTINUOUS
 62
     2
 10
2745.7425337
 20
2091.0369068499999
 30
0.0
 11
2745.7425337
 21
2071.0369003699998
 31
0.0
  0
LINE
  5
9D
  8
0
  6
CONTINUOUS
 62
     2
 10
2745.7425337
 20
2051.0369027299998
 30
0.0
 11
2745.7425337
 21
1971.03690332
 31
0.0
  0
LINE
  5
9E
  8
0
  6
CONTINUOUS
 62
     2
 10
2745.7425337
 20
1951.03690568
 30
0.0
 11
2745.7425337
 21
1871.03690626
 31
0.0
  0
LINE
  5
9F
  8
0
  6
CONTINUOUS
 62
     2
 10
2745.7425337
 20
1851.0368997800001
 30
0.0
 11
2745.7425337
 21
1771.03690037
 31
0.0
  0
LINE
  5
A0
  8
0
  6
CONTINUOUS
 62
     2
 10
2725.74253606
 20
2091.0369068499999
 30
0.0
 11
2725.74253606
 21
2011.03690744
 31
0.0
  0
LINE
  5
A1
  8
0
  6
CONTINUOUS
 62
     2
 10
2725.74253606
 20
1991.0369009599999
 30
0.0
 11
2725.74253606
 21
1911.03690155
 31
0.0
  0
LINE
  5
A2
  8
0
  6
CONTINUOUS
 62
     2
 10
2725.74253606
 20
1891.0369039100001
 30
0.0
 11
2725.74253606
 21
1811.0369045
 31
0.0
  0
LINE
  5
A3
  8
0
  6
CONTINUOUS
 62
     2
 10
2725.74253606
 20
1791.0369068499999
 30
0.0
 11
2725.74253606
 21
1711.03690744
 31
0.0
  0
LINE
  5
A4
  8
0
  6
CONTINUOUS
 62
     2
 10
2705.7425295799999
 20
2091.0369068499999
 30
0.0
 11
2705.7425295799999
 21
2031.0369050899999
 31
0.0
  0
LINE
  5
A5
  8
0
  6
CONTINUOUS
 62
     2
 10
2705.7425295799999
 20
2011.03690744
 30
0.0
 11
2705.7425295799999
 21
1931.0369080299999
 31
0.0
  0
LINE
  5
A6
  8
0
  6
CONTINUOUS
 62
     2
 10
2705.7425295799999
 20
1911.03690155
 30
0.0
 11
2705.7425295799999
 21
1831.0369021399999
 31
0.0
  0
LINE
  5
A7
  8
0
  6
CONTINUOUS
 62
     2
 10
2705.7425295799999
 20
1811.0369045
 30
0.0
 11
2705.7425295799999
 21
1731.0369050899999
 31
0.0
  0
LINE
  5
A8
  8
0
  6
CONTINUOUS
 62
     2
 10
2745.7425337
 20
1751.0368938900001
 30
0.0
 11
2745.7425337
 21
1671.03689448
 31
0.0
  0
LINE
  5
A9
  8
0
  6
CONTINUOUS
 62
     2
 10
2725.74253606
 20
1691.0369009599999
 30
0.0
 11
2725.74253606
 21
1611.03690155
 31
0.0
  0
LINE
  5
AA
  8
0
  6
CONTINUOUS
 62
     2
 10
2705.7425295799999
 20
1711.0368985999989
 30
0.0
 11
2705.7425295799999
 21
1631.03689919
 31
0.0
  0
LINE
  5
AB
  8
0
  6
CONTINUOUS
 62
     2
 10
2745.7425337
 20
1651.0368880000001
 30
0.0
 11
2745.7425337
 21
1571.03688859
 31
0.0
  0
LINE
  5
AC
  8
0
  6
CONTINUOUS
 62
     2
 10
2725.74253606
 20
1591.0368950699999
 30
0.0
 11
2725.74253606
 21
1511.03689566
 31
0.0
  0
LINE
  5
AD
  8
0
  6
CONTINUOUS
 62
     2
 10
2705.7425295799999
 20
1611.0368927100001
 30
0.0
 11
2705.7425295799999
 21
1531.0368933
 31
0.0
  0
LINE
  5
AE
  8
0
  6
CONTINUOUS
 62
     2
 10
2745.7425337
 20
1551.0368821
 30
0.0
 11
2745.7425337
 21
1471.0368826900001
 31
0.0
  0
LINE
  5
AF
  8
0
  6
CONTINUOUS
 62
     2
 10
2725.74253606
 20
1491.0368891799999
 30
0.0
 11
2725.74253606
 21
1451.0369068499999
 31
0.0
  0
LINE
  5
B0
  8
0
  6
CONTINUOUS
 62
     2
 10
2705.7425295799999
 20
1511.0368868200001
 30
0.0
 11
2705.7425295799999
 21
1451.0369068499999
 31
0.0
  0
CIRCLE
  5
B1
  8
0
  6
CONTINUOUS
 62
     2
 10
2025.7425307599999
 20
2291.0369068499999
 30
0.0
 40
12.5
  0
CIRCLE
  5
B2
  8
0
  6
CONTINUOUS
 62
     2
 10
2025.7425307599999
 20
2291.0369068499999
 30
0.0
 40
25.0
  0
CIRCLE
  5
B3
  8
0
  6
CONTINUOUS
 62
     2
 10
2025.7425307599999
 20
2291.0369068499999
 30
0.0
 40
37.5
  0
LINE
  5
B4
  8
0
  6
CONTINUOUS
 62
     2
 10
2025.74252486
 20
2091.0369068499999
 30
0.0
 11
2025.74252486
 21
1991.0369009599999
 31
0.0
  0
LINE
  5
B5
  8
0
  6
CONTINUOUS
 62
     2
 10
2025.74252486
 20
1941.0369068499999
 30
0.0
 11
2025.74252486
 21
1741.0369039100001
 31
0.0
  0
LINE
  5
B6
  8
0
  6
CONTINUOUS
 62
     2
 10
2025.74252486
 20
1691.0369009599999
 30
0.0
 11
2025.74252486
 21
1491.0369068499999
 31
0.0
  0
LINE
  5
B7
  8
0
  6
CONTINUOUS
 62
     2
 10
2050.74252634
 20
2091.0369068499999
 30
0.0
 11
2050.74252634
 21
1891.0369039100001
 31
0.0
  0
LINE
  5
B8
  8
0
  6
CONTINUOUS
 62
     2
 10
2050.74252634
 20
1841.0369009599999
 30
0.0
 11
2050.74252634
 21
1641.0369068499999
 31
0.0
  0
LINE
  5
B9
  8
0
  6
CONTINUOUS
 62
     2
 10
2050.74252634
 20
1591.0369039100001
 30
0.0
 11
2050.74252634
 21
1391.0369009599999
 31
0.0
  0
LINE
  5
BA
  8
0
  6
CONTINUOUS
 62
     2
 10
2065.7425289900002
 20
2091.0369068499999
 30
0.0
 11
2065.7425289900002
 21
2041.0369039100001
 31
0.0
  0
LINE
  5
BB
  8
0
  6
CONTINUOUS
 62
     2
 10
2065.7425289900002
 20
1991.0369009599999
 30
0.0
 11
2065.7425289900002
 21
1791.0369068499999
 31
0.0
  0
LINE
  5
BC
  8
0
  6
CONTINUOUS
 62
     2
 10
2065.7425289900002
 20
1741.0369039100001
 30
0.0
 11
2065.7425289900002
 21
1541.0369009599999
 31
0.0
  0
LINE
  5
BD
  8
0
  6
CONTINUOUS
 62
     2
 10
2000.7425322300001
 20
2041.0369039100001
 30
0.0
 11
2000.7425322300001
 21
1841.0369009599999
 31
0.0
  0
LINE
  5
BE
  8
0
  6
CONTINUOUS
 62
     2
 10
2000.7425322300001
 20
1791.0369068499999
 30
0.0
 11
2000.7425322300001
 21
1591.0369039100001
 31
0.0
  0
LINE
  5
BF
  8
0
  6
CONTINUOUS
 62
     2
 10
2000.7425322300001
 20
1541.0369009599999
 30
0.0
 11
2000.7425322300001
 21
1341.0369068499999
 31
0.0
  0
LINE
  5
C0
  8
0
  6
CONTINUOUS
 62
     2
 10
1985.7425295800001
 20
2091.0369068499999
 30
0.0
 11
1985.7425295800001
 21
1991.0369009599999
 31
0.0
  0
LINE
  5
C1
  8
0
  6
CONTINUOUS
 62
     2
 10
1985.7425295800001
 20
1941.0369068499999
 30
0.0
 11
1985.7425295800001
 21
1741.0369039100001
 31
0.0
  0
LINE
  5
C2
  8
0
  6
CONTINUOUS
 62
     2
 10
1985.7425295800001
 20
1691.0369009599999
 30
0.0
 11
1985.7425295800001
 21
1491.0369068499999
 31
0.0
  0
LINE
  5
C3
  8
0
  6
CONTINUOUS
 62
     2
 10
2025.74252486
 20
1441.0368950699999
 30
0.0
 11
2025.74252486
 21
1241.0369009599999
 31
0.0
  0
LINE
  5
C4
  8
0
  6
CONTINUOUS
 62
     2
 10
2050.74252634
 20
1341.03689801
 30
0.0
 11
2050.74252634
 21
1191.0369068499999
 31
0.0
  0
LINE
  5
C5
  8
0
  6
CONTINUOUS
 62
     2
 10
2065.7425289900002
 20
1491.03689801
 30
0.0
 11
2065.7425289900002
 21
1291.0368950699999
 31
0.0
  0
LINE
  5
C6
  8
0
  6
CONTINUOUS
 62
     2
 10
2000.7425322300001
 20
1291.0368950699999
 30
0.0
 11
2000.7425322300001
 21
1191.0369068499999
 31
0.0
  0
LINE
  5
C7
  8
0
  6
CONTINUOUS
 62
     2
 10
1985.7425295800001
 20
1441.0368950699999
 30
0.0
 11
1985.7425295800001
 21
1241.0369009599999
 31
0.0
  0
LINE
  5
C8
  8
0
  6
CONTINUOUS
 62
     2
 10
2065.7425289900002
 20
1241.0368921199999
 30
0.0
 11
2065.7425289900002
 21
1191.0369068499999
 31
0.0
  0
CIRCLE
  5
C9
  8
0
  6
CONTINUOUS
 62
     2
 10
1325.7425307599999
 20
2291.0369068499999
 30
0.0
 40
12.5
  0
CIRCLE
  5
CA
  8
0
  6
CONTINUOUS
 62
     2
 10
1325.7425307599999
 20
2291.0369068499999
 30
0.0
 40
25.0
  0
CIRCLE
  5
CB
  8
0
  6
CONTINUOUS
 62
     2
 10
1325.7425307599999
 20
2291.0369068499999
 30
0.0
 40
37.5
  0
LINE
  5
CC
  8
0
  6
CONTINUOUS
 62
     2
 10
1325.74252486
 20
2091.0369068499999
 30
0.0
 11
1325.74252486
 21
1991.0369009599999
 31
0.0
  0
LINE
  5
CD
  8
0
  6
CONTINUOUS
 62
     2
 10
1325.74252486
 20
1941.0369068499999
 30
0.0
 11
1325.74252486
 21
1741.0369039100001
 31
0.0
  0
LINE
  5
CE
  8
0
  6
CONTINUOUS
 62
     2
 10
1325.74252486
 20
1691.0369009599999
 30
0.0
 11
1325.74252486
 21
1491.0369068499999
 31
0.0
  0
LINE
  5
CF
  8
0
  6
CONTINUOUS
 62
     2
 10
1350.74252634
 20
2091.0369068499999
 30
0.0
 11
1350.74252634
 21
1891.0369039100001
 31
0.0
  0
LINE
  5
D0
  8
0
  6
CONTINUOUS
 62
     2
 10
1350.74252634
 20
1841.0369009599999
 30
0.0
 11
1350.74252634
 21
1641.0369068499999
 31
0.0
  0
LINE
  5
D1
  8
0
  6
CONTINUOUS
 62
     2
 10
1350.74252634
 20
1591.0369039100001
 30
0.0
 11
1350.74252634
 21
1391.0369009599999
 31
0.0
  0
LINE
  5
D2
  8
0
  6
CONTINUOUS
 62
     2
 10
1365.74252899
 20
2091.0369068499999
 30
0.0
 11
1365.74252899
 21
2041.0369039100001
 31
0.0
  0
LINE
  5
D3
  8
0
  6
CONTINUOUS
 62
     2
 10
1365.74252899
 20
1991.0369009599999
 30
0.0
 11
1365.74252899
 21
1791.0369068499999
 31
0.0
  0
LINE
  5
D4
  8
0
  6
CONTINUOUS
 62
     2
 10
1365.74252899
 20
1741.0369039100001
 30
0.0
 11
1365.74252899
 21
1541.0369009599999
 31
0.0
  0
LINE
  5
D5
  8
0
  6
CONTINUOUS
 62
     2
 10
1300.7425322300001
 20
2041.0369039100001
 30
0.0
 11
1300.7425322300001
 21
1841.0369009599999
 31
0.0
  0
LINE
  5
D6
  8
0
  6
CONTINUOUS
 62
     2
 10
1300.7425322300001
 20
1791.0369068499999
 30
0.0
 11
1300.7425322300001
 21
1591.0369039100001
 31
0.0
  0
LINE
  5
D7
  8
0
  6
CONTINUOUS
 62
     2
 10
1300.7425322300001
 20
1541.0369009599999
 30
0.0
 11
1300.7425322300001
 21
1341.0369068499999
 31
0.0
  0
LINE
  5
D8
  8
0
  6
CONTINUOUS
 62
     2
 10
1285.7425295800001
 20
2091.0369068499999
 30
0.0
 11
1285.7425295800001
 21
1991.0369009599999
 31
0.0
  0
LINE
  5
D9
  8
0
  6
CONTINUOUS
 62
     2
 10
1285.7425295800001
 20
1941.0369068499999
 30
0.0
 11
1285.7425295800001
 21
1741.0369039100001
 31
0.0
  0
LINE
  5
DA
  8
0
  6
CONTINUOUS
 62
     2
 10
1285.7425295800001
 20
1691.0369009599999
 30
0.0
 11
1285.7425295800001
 21
1491.0369068499999
 31
0.0
  0
LINE
  5
DB
  8
0
  6
CONTINUOUS
 62
     2
 10
1325.74252486
 20
1441.0368950699999
 30
0.0
 11
1325.74252486
 21
1241.0369009599999
 31
0.0
  0
LINE
  5
DC
  8
0
  6
CONTINUOUS
 62
     2
 10
1350.74252634
 20
1341.03689801
 30
0.0
 11
1350.74252634
 21
1141.0368950699999
 31
0.0
  0
LINE
  5
DD
  8
0
  6
CONTINUOUS
 62
     2
 10
1365.74252899
 20
1491.03689801
 30
0.0
 11
1365.74252899
 21
1291.0368950699999
 31
0.0
  0
LINE
  5
DE
  8
0
  6
CONTINUOUS
 62
     2
 10
1300.7425322300001
 20
1291.0368950699999
 30
0.0
 11
1300.7425322300001
 21
1091.0369009599999
 31
0.0
  0
LINE
  5
DF
  8
0
  6
CONTINUOUS
 62
     2
 10
1285.7425295800001
 20
1441.0368950699999
 30
0.0
 11
1285.7425295800001
 21
1241.0369009599999
 31
0.0
  0
LINE
  5
E0
  8
0
  6
CONTINUOUS
 62
     2
 10
1325.74252486
 20
1191.0368891799999
 30
0.0
 11
1325.74252486
 21
991.03689507000024
 31
0.0
  0
LINE
  5
E1
  8
0
  6
CONTINUOUS
 62
     2
 10
1350.74252634
 20
1091.0368921199999
 30
0.0
 11
1350.74252634
 21
991.03690685000015
 31
0.0
  0
LINE
  5
E2
  8
0
  6
CONTINUOUS
 62
     2
 10
1365.74252899
 20
1241.0368921199999
 30
0.0
 11
1365.74252899
 21
1041.0368891799999
 31
0.0
  0
LINE
  5
E3
  8
0
  6
CONTINUOUS
 62
     2
 10
1300.7425322300001
 20
1041.0368891799999
 30
0.0
 11
1300.7425322300001
 21
991.03689507000024
 31
0.0
  0
LINE
  5
E4
  8
0
  6
CONTINUOUS
 62
     2
 10
1285.7425295800001
 20
1191.0368891799999
 30
0.0
 11
1285.7425295800001
 21
991.03689507000024
 31
0.0
  0
CIRCLE
  5
E5
  8
0
  6
CONTINUOUS
 62
     2
 10
625.7425307599998
 20
2291.0369068499999
 30
0.0
 40
12.5
  0
CIRCLE
  5
E6
  8
0
  6
CONTINUOUS
 62
     2
 10
625.7425307599998
 20
2291.0369068499999
 30
0.0
 40
25.0
  0
CIRCLE
  5
E7
  8
0
  6
CONTINUOUS
 62
     2
 10
625.7425307599998
 20
2291.0369068499999
 30
0.0
 40
37.5
  0
LINE
  5
E8
  8
0
  6
CONTINUOUS
 62
     2
 10
625.74252486
 20
2091.0369068499999
 30
0.0
 11
625.74252486
 21
1991.0369009599999
 31
0.0
  0
LINE
  5
E9
  8
0
  6
CONTINUOUS
 62
     2
 10
625.74252486
 20
1941.0369068499999
 30
0.0
 11
625.74252486
 21
1741.0369039100001
 31
0.0
  0
LINE
  5
EA
  8
0
  6
CONTINUOUS
 62
     2
 10
625.74252486
 20
1691.0369009599999
 30
0.0
 11
625.74252486
 21
1491.0369068499999
 31
0.0
  0
LINE
  5
EB
  8
0
  6
CONTINUOUS
 62
     2
 10
650.74252634000004
 20
2091.0369068499999
 30
0.0
 11
650.74252634000004
 21
1891.0369039100001
 31
0.0
  0
LINE
  5
EC
  8
0
  6
CONTINUOUS
 62
     2
 10
650.74252634000004
 20
1841.0369009599999
 30
0.0
 11
650.74252634000004
 21
1641.0369068499999
 31
0.0
  0
LINE
  5
ED
  8
0
  6
CONTINUOUS
 62
     2
 10
650.74252634000004
 20
1591.0369039100001
 30
0.0
 11
650.74252634000004
 21
1391.0369009599999
 31
0.0
  0
LINE
  5
EE
  8
0
  6
CONTINUOUS
 62
     2
 10
665.74252898999987
 20
2091.0369068499999
 30
0.0
 11
665.74252898999987
 21
2041.0369039100001
 31
0.0
  0
LINE
  5
EF
  8
0
  6
CONTINUOUS
 62
     2
 10
665.74252898999987
 20
1991.0369009599999
 30
0.0
 11
665.74252898999987
 21
1791.0369068499999
 31
0.0
  0
LINE
  5
F0
  8
0
  6
CONTINUOUS
 62
     2
 10
665.74252898999987
 20
1741.0369039100001
 30
0.0
 11
665.74252898999987
 21
1541.0369009599999
 31
0.0
  0
LINE
  5
F1
  8
0
  6
CONTINUOUS
 62
     2
 10
600.74253223000005
 20
2041.0369039100001
 30
0.0
 11
600.74253223000005
 21
1841.0369009599999
 31
0.0
  0
LINE
  5
F2
  8
0
  6
CONTINUOUS
 62
     2
 10
600.74253223000005
 20
1791.0369068499999
 30
0.0
 11
600.74253223000005
 21
1591.0369039100001
 31
0.0
  0
LINE
  5
F3
  8
0
  6
CONTINUOUS
 62
     2
 10
600.74253223000005
 20
1541.0369009599999
 30
0.0
 11
600.74253223000005
 21
1341.0369068499999
 31
0.0
  0
LINE
  5
F4
  8
0
  6
CONTINUOUS
 62
     2
 10
585.74252958000011
 20
2091.0369068499999
 30
0.0
 11
585.74252958000011
 21
1991.0369009599999
 31
0.0
  0
LINE
  5
F5
  8
0
  6
CONTINUOUS
 62
     2
 10
585.74252958000011
 20
1941.0369068499999
 30
0.0
 11
585.74252958000011
 21
1741.0369039100001
 31
0.0
  0
LINE
  5
F6
  8
0
  6
CONTINUOUS
 62
     2
 10
585.74252958000011
 20
1691.0369009599999
 30
0.0
 11
585.74252958000011
 21
1491.0369068499999
 31
0.0
  0
LINE
  5
F7
  8
0
  6
CONTINUOUS
 62
     2
 10
625.74252486
 20
1441.0368950699999
 30
0.0
 11
625.74252486
 21
1241.0369009599999
 31
0.0
  0
LINE
  5
F8
  8
0
  6
CONTINUOUS
 62
     2
 10
650.74252634000004
 20
1341.03689801
 30
0.0
 11
650.74252634000004
 21
1141.0368950699999
 31
0.0
  0
LINE
  5
F9
  8
0
  6
CONTINUOUS
 62
     2
 10
665.74252898999987
 20
1491.03689801
 30
0.0
 11
665.74252898999987
 21
1291.0368950699999
 31
0.0
  0
LINE
  5
FA
  8
0
  6
CONTINUOUS
 62
     2
 10
600.74253223000005
 20
1291.0368950699999
 30
0.0
 11
600.74253223000005
 21
1091.0369009599999
 31
0.0
  0
LINE
  5
FB
  8
0
  6
CONTINUOUS
 62
     2
 10
585.74252958000011
 20
1441.0368950699999
 30
0.0
 11
585.74252958000011
 21
1241.0369009599999
 31
0.0
  0
LINE
  5
FC
  8
0
  6
CONTINUOUS
 62
     2
 10
625.74252486
 20
1191.0368891799999
 30
0.0
 11
625.74252486
 21
991.03689507000024
 31
0.0
  0
LINE
  5
FD
  8
0
  6
CONTINUOUS
 62
     2
 10
665.74252898999987
 20
1241.0368921199999
 30
0.0
 11
665.74252898999987
 21
1041.0368891799999
 31
0.0
  0
LINE
  5
FE
  8
0
  6
CONTINUOUS
 62
     2
 10
585.74252958000011
 20
1191.0368891799999
 30
0.0
 11
585.74252958000011
 21
991.03689507000024
 31
0.0
  0
LINE
  5
FF
  8
0
  6
CONTINUOUS
 62
     2
 10
650.74252634000004
 20
1091.0368921199999
 30
0.0
 11
650.74252634000004
 21
891.03688918000012
 31
0.0
  0
LINE
  5
100
  8
0
  6
CONTINUOUS
 62
     2
 10
600.74253223000005
 20
1041.0368891799999
 30
0.0
 11
600.74253223000005
 21
841.03689507000001
 31
0.0
  0
LINE
  5
101
  8
0
  6
CONTINUOUS
 62
     2
 10
625.74252486
 20
941.03688327999987
 30
0.0
 11
625.74252486
 21
741.03688918
 31
0.0
  0
LINE
  5
102
  8
0
  6
CONTINUOUS
 62
     2
 10
665.74252898999987
 20
991.03688623000005
 30
0.0
 11
665.74252898999987
 21
791.03688327999976
 31
0.0
  0
LINE
  5
103
  8
0
  6
CONTINUOUS
 62
     2
 10
585.74252958000011
 20
941.03688327999987
 30
0.0
 11
585.74252958000011
 21
741.03688918
 31
0.0
  0
LINE
  5
104
  8
0
  6
CONTINUOUS
 62
     2
 10
650.74252634000004
 20
841.03688623000005
 30
0.0
 11
650.74252634000004
 21
691.03690685000015
 31
0.0
  0
LINE
  5
105
  8
0
  6
CONTINUOUS
 62
     2
 10
600.74253223000005
 20
791.03688327999976
 30
0.0
 11
600.74253223000005
 21
691.03690685000015
 31
0.0
  0
LINE
  5
106
  8
0
  6
CONTINUOUS
 62
     2
 10
665.74252898999987
 20
741.03688034000015
 30
0.0
 11
665.74252898999987
 21
691.03690685000015
 31
0.0
  0
TEXT
  5
107
  8
0
 62
     3
 10
3287.7425307600001
 20
1361.0369068499999
 30
0.0
 40
60.0
  1
ＰＷＳＫ６０５
 41
0.6999999999999998
 72
     5
 11
3623.7425307600001
 21
1361.0369068499999
 31
0.0
  0
TEXT
  5
108
  8
0
 62
     3
 10
2587.7425307600001
 20
1161.0369068499999
 30
0.0
 40
60.0
  1
ＰＷＤＫ６０７
 41
0.7
 72
     5
 11
2923.7425307600001
 21
1161.0369068499999
 31
0.0
  0
TEXT
  5
109
  8
0
 62
     3
 10
1883.7425307599999
 20
861.03690685000004
 30
0.0
 40
60.0
  1
ＰＷＳＫ１０１０
 41
0.7007299270072998
 72
     5
 11
2267.7425307600001
 21
861.03690685000004
 31
0.0
  0
TEXT
  5
10A
  8
0
 62
     3
 10
1183.7425307599999
 20
661.03690685000015
 30
0.0
 40
60.0
  1
ＰＷＳＫ１０１２
 41
0.6956521739130434
 72
     5
 11
1567.7425307599999
 21
661.03690685000015
 31
0.0
  0
TEXT
  5
10B
  8
0
 62
     3
 10
483.74253075999991
 20
361.03690684999992
 30
0.0
 40
60.0
  1
ＰＷＳＫ１０１５
 41
0.6956521739130436
 72
     5
 11
867.74253076000002
 21
361.03690684999992
 31
0.0
  0
LINE
  5
10C
  8
LAYER0002
  6
CONTINUOUS
 62
     4
 10
3464.742530760001
 20
2091.0369068499999
 30
0.0
 11
3584.742530760001
 21
2091.0369068499999
 31
0.0
  0
LINE
  5
10D
  8
LAYER0002
  6
CONTINUOUS
 62
     4
 10
3434.742530760001
 20
1591.0369068499999
 30
0.0
 11
3584.742530760001
 21
1591.0369068499999
 31
0.0
  0
LINE
  5
10E
  8
LAYER0002
  6
CONTINUOUS
 62
     4
 10
2764.7425307600001
 20
2091.0369068499999
 30
0.0
 11
2884.7425307600001
 21
2091.0369068499999
 31
0.0
  0
LINE
  5
10F
  8
LAYER0002
  6
CONTINUOUS
 62
     4
 10
2734.7425307600001
 20
1391.0369068499999
 30
0.0
 11
2884.7425307600001
 21
1391.0369068499999
 31
0.0
  0
LINE
  5
110
  8
LAYER0002
  6
CONTINUOUS
 62
     4
 10
2034.74252486
 20
1091.0369068499999
 30
0.0
 11
2204.7425307600001
 21
1091.0369068499999
 31
0.0
  0
LINE
  5
111
  8
LAYER0002
  6
CONTINUOUS
 62
     4
 10
2084.7425307600001
 20
2091.0369068499999
 30
0.0
 11
2204.7425307600001
 21
2091.0369068499999
 31
0.0
  0
LINE
  5
112
  8
LAYER0002
  6
CONTINUOUS
 62
     4
 10
1334.74252486
 20
891.0369068499997
 30
0.0
 11
1494.74252899
 21
891.0369068499997
 31
0.0
  0
LINE
  5
113
  8
LAYER0002
  6
CONTINUOUS
 62
     4
 10
1384.7425307599999
 20
2091.0369068499999
 30
0.0
 11
1494.74252899
 21
2091.0369068499999
 31
0.0
  0
LINE
  5
114
  8
LAYER0002
  6
CONTINUOUS
 62
     4
 10
634.7425307599998
 20
591.03690685000015
 30
0.0
 11
804.74253075999968
 21
591.03690685000015
 31
0.0
  0
LINE
  5
115
  8
LAYER0002
  6
CONTINUOUS
 62
     4
 10
684.7425307599998
 20
2091.0369068499999
 30
0.0
 11
804.74253075999968
 21
2091.0369068499999
 31
0.0
  0
LINE
  5
116
  8
LAYER0002
  6
CONTINUOUS
 62
     4
 10
575.7425307599998
 20
2300.0369068499999
 30
0.0
 11
575.7425307599998
 21
2470.0369068499999
 31
0.0
  0
LINE
  5
117
  8
LAYER0002
  6
CONTINUOUS
 62
     4
 10
675.7425307599998
 20
2300.0369068499999
 30
0.0
 11
675.7425307599998
 21
2470.0369068499999
 31
0.0
  0
LINE
  5
118
  8
LAYER0002
  6
CONTINUOUS
 62
     4
 10
575.7425307599998
 20
2461.0369068499999
 30
0.0
 11
675.7425307599998
 21
2461.0369068499999
 31
0.0
  0
LINE
  5
119
  8
LAYER0002
  6
CONTINUOUS
 62
     4
 10
1275.7425307599999
 20
2300.0369068499999
 30
0.0
 11
1275.7425307599999
 21
2470.0369068499999
 31
0.0
  0
LINE
  5
11A
  8
LAYER0002
  6
CONTINUOUS
 62
     4
 10
1375.7425307599999
 20
2300.0369068499999
 30
0.0
 11
1375.7425307599999
 21
2470.0369068499999
 31
0.0
  0
LINE
  5
11B
  8
LAYER0002
  6
CONTINUOUS
 62
     4
 10
1275.7425307599999
 20
2461.0369068499999
 30
0.0
 11
1375.7425307599999
 21
2461.0369068499999
 31
0.0
  0
LINE
  5
11C
  8
LAYER0002
  6
CONTINUOUS
 62
     4
 10
1975.7425307599999
 20
2300.0369068499999
 30
0.0
 11
1975.7425307599999
 21
2470.0369068499999
 31
0.0
  0
LINE
  5
11D
  8
LAYER0002
  6
CONTINUOUS
 62
     4
 10
2075.7425307600001
 20
2300.0369068499999
 30
0.0
 11
2075.7425307600001
 21
2470.0369068499999
 31
0.0
  0
LINE
  5
11E
  8
LAYER0002
  6
CONTINUOUS
 62
     4
 10
1975.7425307599999
 20
2461.0369068499999
 30
0.0
 11
2075.7425307600001
 21
2461.0369068499999
 31
0.0
  0
LINE
  5
11F
  8
LAYER0002
  6
CONTINUOUS
 62
     4
 10
2695.7425307600001
 20
2300.0369068499999
 30
0.0
 11
2695.7425307600001
 21
2450.0369068499999
 31
0.0
  0
LINE
  5
120
  8
LAYER0002
  6
CONTINUOUS
 62
     4
 10
2755.7425307600001
 20
2300.0369068499999
 30
0.0
 11
2755.7425307600001
 21
2450.0369068499999
 31
0.0
  0
LINE
  5
121
  8
LAYER0002
  6
CONTINUOUS
 62
     4
 10
2695.7425307600001
 20
2441.0369068499999
 30
0.0
 11
2755.7425307600001
 21
2441.0369068499999
 31
0.0
  0
LINE
  5
122
  8
LAYER0002
  6
CONTINUOUS
 62
     4
 10
3395.742530760001
 20
2300.0369068499999
 30
0.0
 11
3395.742530760001
 21
2450.0369068499999
 31
0.0
  0
LINE
  5
123
  8
LAYER0002
  6
CONTINUOUS
 62
     4
 10
3455.7425307600001
 20
2300.0369068499999
 30
0.0
 11
3455.7425307600001
 21
2450.0369068499999
 31
0.0
  0
LINE
  5
124
  8
LAYER0002
  6
CONTINUOUS
 62
     4
 10
3395.742530760001
 20
2441.0369068499999
 30
0.0
 11
3455.7425307600001
 21
2441.0369068499999
 31
0.0
  0
LINE
  5
125
  8
LAYER0002
  6
CONTINUOUS
 62
     4
 10
3575.7425307599992
 20
2091.0369068499999
 30
0.0
 11
3575.7425307599992
 21
1591.0369068499999
 31
0.0
  0
INSERT
  5
126
  8
LAYER0002
  6
CONTINUOUS
 62
     4
  2
_OPEN30
 10
3575.7425307599992
 20
2091.0369068499999
 30
0.0
 41
29.999976109999999
 42
30.00008592
 50
90.0
  0
INSERT
  5
127
  8
LAYER0002
  6
CONTINUOUS
 62
     4
  2
_OPEN30
 10
3575.7425307599992
 20
1591.0369068499999
 30
0.0
 41
29.999976109999999
 42
30.00008592
 50
270.0
  0
LINE
  5
128
  8
LAYER0002
  6
CONTINUOUS
 62
     4
 10
2875.7425307600001
 20
2091.0369068499999
 30
0.0
 11
2875.7425307600001
 21
1391.0369068499999
 31
0.0
  0
INSERT
  5
129
  8
LAYER0002
  6
CONTINUOUS
 62
     4
  2
_OPEN30
 10
2875.7425307600001
 20
2091.0369068499999
 30
0.0
 41
29.999976109999999
 42
30.00008592
 50
90.0
  0
INSERT
  5
12A
  8
LAYER0002
  6
CONTINUOUS
 62
     4
  2
_OPEN30
 10
2875.7425307600001
 20
1391.0369068499999
 30
0.0
 41
29.999976109999999
 42
30.00008592
 50
270.0
  0
LINE
  5
12B
  8
LAYER0002
  6
CONTINUOUS
 62
     4
 10
2195.7425307600001
 20
2091.0369068499999
 30
0.0
 11
2195.7425307600001
 21
1091.0369068499999
 31
0.0
  0
INSERT
  5
12C
  8
LAYER0002
  6
CONTINUOUS
 62
     4
  2
_OPEN30
 10
2195.7425307600001
 20
2091.0369068499999
 30
0.0
 41
29.999976109999999
 42
30.00008592
 50
90.0
  0
INSERT
  5
12D
  8
LAYER0002
  6
CONTINUOUS
 62
     4
  2
_OPEN30
 10
2195.7425307600001
 20
1091.0369068499999
 30
0.0
 41
29.999976109999999
 42
30.00008592
 50
270.0
  0
LINE
  5
12E
  8
LAYER0002
  6
CONTINUOUS
 62
     4
 10
1485.74252899
 20
891.0369068499997
 30
0.0
 11
1485.74252899
 21
2091.0369068499999
 31
0.0
  0
INSERT
  5
12F
  8
LAYER0002
  6
CONTINUOUS
 62
     4
  2
_OPEN30
 10
1485.74252899
 20
891.0369068499997
 30
0.0
 41
29.999976109999999
 42
30.00008592
 50
270.0
  0
INSERT
  5
130
  8
LAYER0002
  6
CONTINUOUS
 62
     4
  2
_OPEN30
 10
1485.74252899
 20
2091.0369068499999
 30
0.0
 41
29.999976109999999
 42
30.00008592
 50
90.0
  0
LINE
  5
131
  8
LAYER0002
  6
CONTINUOUS
 62
     4
 10
795.7425307599998
 20
2091.0369068499999
 30
0.0
 11
795.7425307599998
 21
591.03690685000015
 31
0.0
  0
INSERT
  5
132
  8
LAYER0002
  6
CONTINUOUS
 62
     4
  2
_OPEN30
 10
795.7425307599998
 20
2091.0369068499999
 30
0.0
 41
29.999976109999999
 42
30.00008592
 50
90.0
  0
INSERT
  5
133
  8
LAYER0002
  6
CONTINUOUS
 62
     4
  2
_OPEN30
 10
795.7425307599998
 20
591.03690685000015
 30
0.0
 41
29.999976109999999
 42
30.00008592
 50
270.0
  0
LINE
  5
134
  8
LAYER0002
  6
CONTINUOUS
 62
     4
 10
735.74253075999968
 20
2461.0369068499999
 30
0.0
 11
675.7425307599998
 21
2461.0369068499999
 31
0.0
  0
INSERT
  5
135
  8
LAYER0002
  6
CONTINUOUS
 62
     4
  2
_OPEN30
 10
675.7425307599998
 20
2461.0369068499999
 30
0.0
 41
29.999976109999999
 42
30.00008592
 50
180.0
  0
LINE
  5
136
  8
LAYER0002
  6
CONTINUOUS
 62
     4
 10
515.74253075999991
 20
2461.0369068499999
 30
0.0
 11
575.7425307599998
 21
2461.0369068499999
 31
0.0
  0
INSERT
  5
137
  8
LAYER0002
  6
CONTINUOUS
 62
     4
  2
_OPEN30
 10
575.7425307599998
 20
2461.0369068499999
 30
0.0
 41
29.999976109999999
 42
30.00008592
  0
LINE
  5
138
  8
LAYER0002
  6
CONTINUOUS
 62
     4
 10
1435.7425307599999
 20
2461.0369068499999
 30
0.0
 11
1375.7425307599999
 21
2461.0369068499999
 31
0.0
  0
INSERT
  5
139
  8
LAYER0002
  6
CONTINUOUS
 62
     4
  2
_OPEN30
 10
1375.7425307599999
 20
2461.0369068499999
 30
0.0
 41
29.999976109999999
 42
30.00008592
 50
180.0
  0
LINE
  5
13A
  8
LAYER0002
  6
CONTINUOUS
 62
     4
 10
1215.7425307599999
 20
2461.0369068499999
 30
0.0
 11
1275.7425307599999
 21
2461.0369068499999
 31
0.0
  0
INSERT
  5
13B
  8
LAYER0002
  6
CONTINUOUS
 62
     4
  2
_OPEN30
 10
1275.7425307599999
 20
2461.0369068499999
 30
0.0
 41
29.999976109999999
 42
30.00008592
  0
LINE
  5
13C
  8
LAYER0002
  6
CONTINUOUS
 62
     4
 10
2135.7425307600001
 20
2461.0369068499999
 30
0.0
 11
2075.7425307600001
 21
2461.0369068499999
 31
0.0
  0
INSERT
  5
13D
  8
LAYER0002
  6
CONTINUOUS
 62
     4
  2
_OPEN30
 10
2075.7425307600001
 20
2461.0369068499999
 30
0.0
 41
29.999976109999999
 42
30.00008592
 50
180.0
  0
LINE
  5
13E
  8
LAYER0002
  6
CONTINUOUS
 62
     4
 10
1915.7425307599999
 20
2461.0369068499999
 30
0.0
 11
1975.7425307599999
 21
2461.0369068499999
 31
0.0
  0
INSERT
  5
13F
  8
LAYER0002
  6
CONTINUOUS
 62
     4
  2
_OPEN30
 10
1975.7425307599999
 20
2461.0369068499999
 30
0.0
 41
29.999976109999999
 42
30.00008592
  0
LINE
  5
140
  8
LAYER0002
  6
CONTINUOUS
 62
     4
 10
2815.7425307600001
 20
2441.0369068499999
 30
0.0
 11
2755.7425307600001
 21
2441.0369068499999
 31
0.0
  0
INSERT
  5
141
  8
LAYER0002
  6
CONTINUOUS
 62
     4
  2
_OPEN30
 10
2755.7425307600001
 20
2441.0369068499999
 30
0.0
 41
29.999976109999999
 42
30.00008592
 50
180.0
  0
LINE
  5
142
  8
LAYER0002
  6
CONTINUOUS
 62
     4
 10
2635.7425307600001
 20
2441.0369068499999
 30
0.0
 11
2695.7425307600001
 21
2441.0369068499999
 31
0.0
  0
INSERT
  5
143
  8
LAYER0002
  6
CONTINUOUS
 62
     4
  2
_OPEN30
 10
2695.7425307600001
 20
2441.0369068499999
 30
0.0
 41
29.999976109999999
 42
30.00008592
  0
LINE
  5
144
  8
LAYER0002
  6
CONTINUOUS
 62
     4
 10
3515.7425307600001
 20
2441.0369068499999
 30
0.0
 11
3455.7425307600001
 21
2441.0369068499999
 31
0.0
  0
INSERT
  5
145
  8
LAYER0002
  6
CONTINUOUS
 62
     4
  2
_OPEN30
 10
3455.7425307600001
 20
2441.0369068499999
 30
0.0
 41
29.999976109999999
 42
30.00008592
 50
180.0
  0
LINE
  5
146
  8
LAYER0002
  6
CONTINUOUS
 62
     4
 10
3335.742530760001
 20
2441.0369068499999
 30
0.0
 11
3395.742530760001
 21
2441.0369068499999
 31
0.0
  0
INSERT
  5
147
  8
LAYER0002
  6
CONTINUOUS
 62
     4
  2
_OPEN30
 10
3395.742530760001
 20
2441.0369068499999
 30
0.0
 41
29.999976109999999
 42
30.00008592
  0
TEXT
  5
148
  8
LAYER0002
 62
     4
 10
3566.742530760001
 20
1787.0369063200001
 30
0.0
 40
45.0
  1
500
 50
90.0
 41
1.028571428571428
 72
     5
 11
3566.742530760001
 21
1895.0369063200001
 31
0.0
  0
TEXT
  5
149
  8
LAYER0002
 62
     4
 10
2866.7425307600001
 20
1687.0369063200001
 30
0.0
 40
45.0
  1
700
 50
90.0
 41
1.028571428571428
 72
     5
 11
2866.7425307600001
 21
1795.0369063200001
 31
0.0
  0
TEXT
  5
14A
  8
LAYER0002
 62
     4
 10
2186.7425307600001
 20
1519.0369068499999
 30
0.0
 40
45.0
  1
1000
 50
90.0
 41
1.1294117647058819
 72
     5
 11
2186.7425307600001
 21
1663.0369068499999
 31
0.0
  0
TEXT
  5
14B
  8
LAYER0002
 62
     4
 10
1476.74252899
 20
1419.0369068499999
 30
0.0
 40
45.0
  1
1200
 50
90.0
 41
1.066666666666666
 72
     5
 11
1476.74252899
 21
1563.0369068499999
 31
0.0
  0
TEXT
  5
14C
  8
LAYER0002
 62
     4
 10
786.74253075999968
 20
1269.0369068499999
 30
0.0
 40
45.0
  1
1500
 50
90.0
 41
1.066666666666666
 72
     5
 11
786.74253075999968
 21
1413.0369068499999
 31
0.0
  0
TEXT
  5
14D
  8
LAYER0002
 62
     4
 10
553.74253075999991
 20
2470.0369068499999
 30
0.0
 40
45.0
  1
\U+03C6100
 72
     5
 11
697.7425307599998
 21
2470.0369068499999
 31
0.0
  0
TEXT
  5
14E
  8
LAYER0002
 62
     4
 10
1253.7425307599999
 20
2470.0369068499999
 30
0.0
 40
45.0
  1
\U+03C6100
 72
     5
 11
1397.7425307599999
 21
2470.0369068499999
 31
0.0
  0
TEXT
  5
14F
  8
LAYER0002
 62
     4
 10
1953.7425307599999
 20
2470.0369068499999
 30
0.0
 40
45.0
  1
\U+03C6100
 72
     5
 11
2097.7425307600001
 21
2470.0369068499999
 31
0.0
  0
TEXT
  5
150
  8
LAYER0002
 62
     4
 10
2671.7425307600001
 20
2450.0369068499999
 30
0.0
 40
45.0
  1
\U+03C660
 41
0.8888888888888887
 72
     5
 11
2779.7425307600001
 21
2450.0369068499999
 31
0.0
  0
TEXT
  5
151
  8
LAYER0002
 62
     4
 10
3371.742530760001
 20
2450.0369068499999
 30
0.0
 40
45.0
  1
\U+03C660
 41
0.8888888888888887
 72
     5
 11
3479.7425307600001
 21
2450.0369068499999
 31
0.0
  0
TEXT
  5
152
  8
LAYER0064
 62
     3
 10
2682.0
 20
30.0
 30
0.0
 40
90.0
  1
プラウッド　一本杭・止め杭
 41
0.9391304347826087
 72
     5
 11
3978.0
 21
30.0
 31
0.0
  0
TEXT
  5
345
  8
LAYER0002
 62
     4
 10
372.29110442671839
 20
25.31581278938916
 30
0.0
 40
44.448979549788007
  1
●寸法・重量に関しては、全て標準値です。
 41
0.7323647552057744
 72
     5
 11
1125.347405187588
 21
25.31581278938916
 31
0.0
  0
TEXT
  5
346
  8
LAYER0002
 62
     4
 10
372.37229675766679
 20
94.985649559939233
 30
0.0
 40
44.448979549788007
  1
●擬木仕様　外観：クヌギ模様　　色：ダークブラウン
 41
0.7408409209800384
 72
     5
 11
1349.2844441642051
 21
94.985649559939233
 31
0.0
  0
TEXT
  5
347
  8
LAYER0002
 62
     4
 10
371.34585496886388
 20
164.58021817088309
 30
0.0
 40
44.448979549788007
  1
●賠償責任保険加入品（ＰＬ保険）
 41
0.7607023207088212
 72
     5
 11
993.49478586745761
 21
164.58021817088309
 31
0.0
  0
TEXT
  5
348
  8
LAYER0002
 62
     4
 10
372.15507928608889
 20
234.22617243637521
 30
0.0
 40
44.448979549788007
  1
●樹脂部は再生プラスチック100％（エコマーク認定品）
 41
0.7266624093017836
 72
     5
 11
1351.90362392928
 21
234.22617243637521
 31
0.0
  0
LINE
  5
349
  8
0
  6
CONTINUOUS
 10
0.0000024406826924
 20
300.00000000000068
 30
0.0
 11
2580.0
 21
300.0
 31
0.0
  0
TEXT
  5
34A
  8
LAYER0002
 62
     4
 10
28.603810454007998
 20
234.22617243637521
 30
0.0
 40
44.448979549788007
  1
《特記仕様》
 41
0.8654848667936059
 72
     5
 11
285.06993808574123
 21
234.22617243637521
 31
0.0
  0
ENDSEC
  0
EOF
