  0
SECTION
  2
HEADER
  9
$ACADVER
  1
AC1009
  9
$INSBASE
 10
0.0
 20
0.0
 30
0.0
  9
$EXTMIN
 10
0.0
 20
0.0
 30
0.0
  9
$EXTMAX
 10
4080.0
 20
2700.0
 30
0.0
  9
$LIMMIN
 10
-2002.501
 20
-1425.001
  9
$LIMMAX
 10
2077.5010000000002
 20
1275.001
  9
$ORTHOMODE
 70
     0
  9
$REGENMODE
 70
     1
  9
$FILLMODE
 70
     1
  9
$QTEXTMODE
 70
     0
  9
$MIRRTEXT
 70
     1
  9
$DRAGMODE
 70
     2
  9
$LTSCALE
 40
68.0
  9
$OSMODE
 70
    37
  9
$ATTMODE
 70
     1
  9
$TEXTSIZE
 40
50.0
  9
$TRACEWID
 40
0.05
  9
$TEXTSTYLE
  7
STANDARD
  9
$CLAYER
  8
0
  9
$CELTYPE
  6
CONTINUOUS
  9
$CECOLOR
 62
   256
  9
$DIMSCALE
 40
1.0
  9
$DIMASZ
 40
0.18
  9
$DIMEXO
 40
0.0625
  9
$DIMDLI
 40
0.38
  9
$DIMRND
 40
0.0
  9
$DIMDLE
 40
0.0
  9
$DIMEXE
 40
0.18
  9
$DIMTP
 40
0.0
  9
$DIMTM
 40
0.0
  9
$DIMTXT
 40
0.18
  9
$DIMCEN
 40
0.09
  9
$DIMTSZ
 40
0.0
  9
$DIMTOL
 70
     0
  9
$DIMLIM
 70
     0
  9
$DIMTIH
 70
     1
  9
$DIMTOH
 70
     1
  9
$DIMSE1
 70
     0
  9
$DIMSE2
 70
     0
  9
$DIMTAD
 70
     0
  9
$DIMZIN
 70
     0
  9
$DIMBLK
  1

  9
$DIMASO
 70
     1
  9
$DIMSHO
 70
     1
  9
$DIMPOST
  1

  9
$DIMAPOST
  1

  9
$DIMALT
 70
     0
  9
$DIMALTD
 70
     2
  9
$DIMALTF
 40
25.399999999999999
  9
$DIMLFAC
 40
1.0
  9
$DIMTOFL
 70
     0
  9
$DIMTVP
 40
0.0
  9
$DIMTIX
 70
     0
  9
$DIMSOXD
 70
     0
  9
$DIMSAH
 70
     0
  9
$DIMBLK1
  1

  9
$DIMBLK2
  1

  9
$DIMSTYLE
  2
STANDARD
  9
$DIMCLRD
 70
     0
  9
$DIMCLRE
 70
     0
  9
$DIMCLRT
 70
     0
  9
$DIMTFAC
 40
1.0
  9
$DIMGAP
 40
0.09
  9
$LUNITS
 70
     2
  9
$LUPREC
 70
     4
  9
$SKETCHINC
 40
0.1
  9
$FILLETRAD
 40
0.0
  9
$AUNITS
 70
     0
  9
$AUPREC
 70
     0
  9
$MENU
  1
acad
  9
$ELEVATION
 40
0.0
  9
$PELEVATION
 40
0.0
  9
$THICKNESS
 40
0.0
  9
$LIMCHECK
 70
     0
  9
$BLIPMODE
 70
     0
  9
$CHAMFERA
 40
0.0
  9
$CHAMFERB
 40
0.0
  9
$SKPOLY
 70
     0
  9
$TDCREATE
 40
2451397.6016331022
  9
$TDUPDATE
 40
2457770.4858003119
  9
$TDINDWG
 40
0.424543125
  9
$TDUSRTIMER
 40
0.4245430671
  9
$USRTIMER
 70
     1
  9
$ANGBASE
 50
0.0
  9
$ANGDIR
 70
     0
  9
$PDMODE
 70
     0
  9
$PDSIZE
 40
0.0
  9
$PLINEWID
 40
0.0
  9
$COORDS
 70
     1
  9
$SPLFRAME
 70
     0
  9
$SPLINETYPE
 70
     6
  9
$SPLINESEGS
 70
     8
  9
$ATTDIA
 70
     1
  9
$ATTREQ
 70
     1
  9
$HANDLING
 70
     1
  9
$HANDSEED
  5
100B
  9
$SURFTAB1
 70
     6
  9
$SURFTAB2
 70
     6
  9
$SURFTYPE
 70
     6
  9
$SURFU
 70
     6
  9
$SURFV
 70
     6
  9
$UCSNAME
  2

  9
$UCSORG
 10
0.0
 20
0.0
 30
0.0
  9
$UCSXDIR
 10
1.0
 20
0.0
 30
0.0
  9
$UCSYDIR
 10
0.0
 20
1.0
 30
0.0
  9
$PUCSNAME
  2

  9
$PUCSORG
 10
0.0
 20
0.0
 30
0.0
  9
$PUCSXDIR
 10
1.0
 20
0.0
 30
0.0
  9
$PUCSYDIR
 10
0.0
 20
1.0
 30
0.0
  9
$USERI1
 70
     0
  9
$USERI2
 70
     0
  9
$USERI3
 70
     0
  9
$USERI4
 70
     0
  9
$USERI5
 70
     0
  9
$USERR1
 40
0.0
  9
$USERR2
 40
0.0
  9
$USERR3
 40
0.0
  9
$USERR4
 40
0.0
  9
$USERR5
 40
0.0
  9
$WORLDVIEW
 70
     1
  9
$SHADEDGE
 70
     3
  9
$SHADEDIF
 70
    70
  9
$TILEMODE
 70
     1
  9
$MAXACTVP
 70
    48
  9
$PLIMCHECK
 70
     0
  9
$PEXTMIN
 10
1.0000000000000000E+020
 20
1.0000000000000000E+020
 30
1.0000000000000000E+020
  9
$PEXTMAX
 10
-1.0000000000000000E+020
 20
-1.0000000000000000E+020
 30
-1.0000000000000000E+020
  9
$PLIMMIN
 10
0.0
 20
0.0
  9
$PLIMMAX
 10
12.0
 20
9.0
  9
$UNITMODE
 70
     0
  9
$VISRETAIN
 70
     1
  9
$PLINEGEN
 70
     0
  9
$PSLTSCALE
 70
     1
  0
ENDSEC
  0
SECTION
  2
TABLES
  0
TABLE
  2
VPORT
 70
     1
  0
VPORT
  2
*ACTIVE
 70
     0
 10
0.0
 20
0.0
 11
1.0
 21
1.0
 12
3465.2454735070119
 22
967.93227399541502
 13
0.0
 23
0.0
 14
1.0
 24
1.0
 15
0.0
 25
0.0
 16
0.0
 26
0.0
 36
1.0
 17
0.0
 27
0.0
 37
0.0
 40
4408.4240926052726
 41
2.3741851368970011
 42
50.0
 43
0.0
 44
0.0
 50
0.0
 51
0.0
 71
     0
 72
   100
 73
     1
 74
     1
 75
     0
 76
     0
 77
     0
 78
     0
  0
ENDTAB
  0
TABLE
  2
LTYPE
 70
     1
  0
LTYPE
  2
CONTINUOUS
 70
     0
  3
Solid-Line
 72
    65
 73
     0
 40
0.0
  0
ENDTAB
  0
TABLE
  2
LAYER
 70
     4
  0
LAYER
  2
0
 70
     0
 62
     7
  6
CONTINUOUS
  0
LAYER
  2
LAYER0003
 70
     0
 62
     7
  6
CONTINUOUS
  0
LAYER
  2
LAYER0014
 70
     0
 62
     7
  6
CONTINUOUS
  0
LAYER
  2
LAYER0002
 70
     0
 62
     7
  6
CONTINUOUS
  0
ENDTAB
  0
TABLE
  2
STYLE
 70
     2
  0
STYLE
  2
STANDARD
 70
     0
 40
0.0
 41
1.0
 50
0.0
 71
     0
 42
50.0
  3
TXT
  4
BIGFONT
  0
ENDTAB
  0
TABLE
  2
VIEW
 70
     0
  0
ENDTAB
  0
TABLE
  2
UCS
 70
     0
  0
ENDTAB
  0
TABLE
  2
APPID
 70
     6
  0
APPID
  2
ACAD
 70
     0
  0
APPID
  2
ACADANNOTATIVE
 70
     0
  0
APPID
  2
ACAD_MLEADERVER
 70
     0
  0
APPID
  2
ACAD_NAV_VCDISPLAY
 70
     0
  0
APPID
  2
ACAD_PSEXT
 70
     0
  0
APPID
  2
ACAD_EXEMPT_FROM_CAD_STANDARDS
 70
     0
  0
ENDTAB
  0
TABLE
  2
DIMSTYLE
 70
     2
  0
DIMSTYLE
  2
STANDARD
 70
     0
  3

  4

  5

  6

  7

 40
1.0
 41
0.18
 42
0.0625
 43
0.38
 44
0.18
 45
0.0
 46
0.0
 47
0.0
 48
0.0
140
0.18
141
0.09
142
0.0
143
25.399999999999999
144
1.0
145
0.0
146
1.0
147
0.09
 71
     0
 72
     0
 73
     1
 74
     1
 75
     0
 76
     0
 77
     0
 78
     0
170
     0
171
     2
172
     0
173
     0
174
     0
175
     0
176
     0
177
     0
178
     0
  0
ENDTAB
  0
ENDSEC
  0
SECTION
  2
BLOCKS
  0
BLOCK
  8
0
  2
$MODEL_SPACE
 70
     0
 10
0.0
 20
0.0
 30
0.0
  3
$MODEL_SPACE
  1

  0
ENDBLK
  5
FA3
  8
0
  0
BLOCK
 67
     1
  8
0
  2
$PAPER_SPACE
 70
     0
 10
0.0
 20
0.0
 30
0.0
  3
$PAPER_SPACE
  1

  0
ENDBLK
  5
F9F
 67
     1
  8
0
  0
ENDSEC
  0
SECTION
  2
ENTITIES
  0
LINE
  5
2B
  8
0
 10
3206.6195579771802
 20
1829.191057369359
 30
0.0
 11
3206.6195579771802
 21
1737.191057369359
 31
0.0
  0
LINE
  5
2C
  8
0
 10
3206.6195579771802
 20
1679.191057369359
 30
0.0
 11
3206.6195579771802
 21
1479.1910543693591
 31
0.0
  0
LINE
  5
2D
  8
0
 10
3206.6195579771802
 20
1421.191057369359
 30
0.0
 11
3206.6195579771802
 21
1229.191057369359
 31
0.0
  0
LINE
  5
2E
  8
0
 10
3206.6195579771802
 20
1179.1910543693591
 30
0.0
 11
3206.6195579771802
 21
979.19105136935923
 31
0.0
  0
LINE
  5
2F
  8
0
 10
3206.6195579771802
 20
929.19105736935933
 30
0.0
 11
3206.6195579771802
 21
754.36284606690219
 31
0.0
  0
LINE
  5
30
  8
0
 10
3231.61955997718
 20
1829.191057369359
 30
0.0
 11
3231.61955997718
 21
1629.1910543693591
 31
0.0
  0
LINE
  5
31
  8
0
 10
3231.61955997718
 20
1579.191051369359
 30
0.0
 11
3231.61955997718
 21
1379.191057369359
 31
0.0
  0
LINE
  5
32
  8
0
 10
3231.61955997718
 20
1329.1910543693591
 30
0.0
 11
3231.61955997718
 21
1129.191051369359
 31
0.0
  0
LINE
  5
33
  8
0
 10
3231.61955997718
 20
1079.191057369359
 30
0.0
 11
3231.61955997718
 21
879.19105436935922
 31
0.0
  0
LINE
  5
34
  8
0
 10
3231.61955997718
 20
829.19105136935923
 30
0.0
 11
3231.61955997718
 21
754.36284606690219
 31
0.0
  0
LINE
  5
35
  8
0
 10
3246.6195529771799
 20
1829.191057369359
 30
0.0
 11
3246.6195529771799
 21
1779.1910543693591
 31
0.0
  0
LINE
  5
36
  8
0
 10
3246.6195529771799
 20
1729.191051369359
 30
0.0
 11
3246.6195529771799
 21
1529.191057369359
 31
0.0
  0
LINE
  5
37
  8
0
 10
3246.6195529771799
 20
1479.1910543693591
 30
0.0
 11
3246.6195529771799
 21
1279.191051369359
 31
0.0
  0
LINE
  5
38
  8
0
 10
3246.6195529771799
 20
1229.191057369359
 30
0.0
 11
3246.6195529771799
 21
1029.1910543693591
 31
0.0
  0
LINE
  5
39
  8
0
 10
3246.6195529771799
 20
979.19105136935923
 30
0.0
 11
3246.6195529771799
 21
779.19105736935944
 31
0.0
  0
LINE
  5
3A
  8
0
 10
3181.6195569771799
 20
1779.1910543693591
 30
0.0
 11
3181.6195569771799
 21
1579.191051369359
 31
0.0
  0
LINE
  5
3B
  8
0
 10
3181.6195569771799
 20
1529.191057369359
 30
0.0
 11
3181.6195569771799
 21
1329.1910543693591
 31
0.0
  0
LINE
  5
3C
  8
0
 10
3181.6195569771799
 20
1279.191051369359
 30
0.0
 11
3181.6195569771799
 21
1079.191057369359
 31
0.0
  0
LINE
  5
3D
  8
0
 10
3181.6195569771799
 20
1029.1910543693591
 30
0.0
 11
3181.6195569771799
 21
829.19105136935923
 31
0.0
  0
LINE
  5
3E
  8
0
 10
3166.6195539771802
 20
1829.191057369359
 30
0.0
 11
3166.6195539771802
 21
1729.191051369359
 31
0.0
  0
LINE
  5
3F
  8
0
 10
3166.6195539771802
 20
1679.191057369359
 30
0.0
 11
3166.6195539771802
 21
1479.1910543693591
 31
0.0
  0
LINE
  5
40
  8
0
 10
3166.6195539771802
 20
1429.191051369359
 30
0.0
 11
3166.6195539771802
 21
1229.191057369359
 31
0.0
  0
LINE
  5
41
  8
0
 10
3166.6195539771802
 20
1179.1910543693591
 30
0.0
 11
3166.6195539771802
 21
979.19105136935923
 31
0.0
  0
LINE
  5
42
  8
0
 10
3166.6195539771802
 20
929.19105736935933
 30
0.0
 11
3166.6195539771802
 21
754.36284606690219
 31
0.0
  0
LINE
  5
45
  8
0
 10
3181.6195569771799
 20
779.19105736935944
 30
0.0
 11
3181.6195569771799
 21
754.36284606690219
 31
0.0
  0
LINE
  5
48
  8
0
 10
3256.6195609771798
 20
754.36284606690219
 30
0.0
 11
3256.6195609771798
 21
1829.191057369359
 31
0.0
  0
LINE
  5
49
  8
0
 10
3256.6195609771798
 20
1829.191057369359
 30
0.0
 11
3156.6195549771801
 21
1829.191057369359
 31
0.0
  0
LINE
  5
4A
  8
0
 10
3156.6195549771801
 20
1829.191057369359
 30
0.0
 11
3156.6195549771801
 21
754.36284606690219
 31
0.0
  0
LINE
  5
4B
  8
0
 10
3156.6195549771801
 20
1129.191057369359
 30
0.0
 11
2956.6195549771801
 21
1129.191057369359
 31
0.0
  0
LINE
  5
4C
  8
0
 10
3256.6195549771801
 20
1129.191057369359
 30
0.0
 11
3535.619554977181
 21
1129.191057369359
 31
0.0
  0
CIRCLE
  5
54
  8
0
 10
3206.6195579771802
 20
1729.191057369359
 30
0.0
 40
8.0
  0
CIRCLE
  5
56
  8
0
 10
2349.2809872236421
 20
2229.1910513693601
 30
0.0
 40
50.000002999999992
  0
CIRCLE
  5
57
  8
0
 10
849.28098722364166
 20
2229.1910513693601
 30
0.0
 40
50.000002999999992
  0
LINE
  5
58
  8
0
 10
2349.2809872236421
 20
1829.191057369359
 30
0.0
 11
2349.2809872236421
 21
1737.191057369359
 31
0.0
  0
LINE
  5
59
  8
0
 10
2349.2809872236421
 20
1679.191057369359
 30
0.0
 11
2349.2809872236421
 21
1479.1910543693591
 31
0.0
  0
LINE
  5
5A
  8
0
 10
2349.2809872236421
 20
1421.191057369359
 30
0.0
 11
2349.2809872236421
 21
1229.191057369359
 31
0.0
  0
LINE
  5
5B
  8
0
 10
2349.2809872236421
 20
1179.1910543693591
 30
0.0
 11
2349.2809872236421
 21
979.19105136935923
 31
0.0
  0
LINE
  5
5C
  8
0
 10
2349.2809872236421
 20
929.19105736935933
 30
0.0
 11
2349.2809872236421
 21
754.36284606690219
 31
0.0
  0
LINE
  5
5D
  8
0
 10
2374.2809892236419
 20
1829.191057369359
 30
0.0
 11
2374.2809892236419
 21
1629.1910543693591
 31
0.0
  0
LINE
  5
5E
  8
0
 10
2374.2809892236419
 20
1579.191051369359
 30
0.0
 11
2374.2809892236419
 21
1379.191057369359
 31
0.0
  0
LINE
  5
5F
  8
0
 10
2374.2809892236419
 20
1329.1910543693591
 30
0.0
 11
2374.2809892236419
 21
1129.191051369359
 31
0.0
  0
LINE
  5
60
  8
0
 10
2374.2809892236419
 20
1079.191057369359
 30
0.0
 11
2374.2809892236419
 21
879.19105436935922
 31
0.0
  0
LINE
  5
61
  8
0
 10
2374.2809892236419
 20
829.19105136935923
 30
0.0
 11
2374.2809892236419
 21
754.36284606690219
 31
0.0
  0
LINE
  5
62
  8
0
 10
2389.2809822236409
 20
1829.191057369359
 30
0.0
 11
2389.2809822236409
 21
1779.1910543693591
 31
0.0
  0
LINE
  5
63
  8
0
 10
2389.2809822236409
 20
1729.191051369359
 30
0.0
 11
2389.2809822236409
 21
1529.191057369359
 31
0.0
  0
LINE
  5
64
  8
0
 10
2389.2809822236409
 20
1479.1910543693591
 30
0.0
 11
2389.2809822236409
 21
1279.191051369359
 31
0.0
  0
LINE
  5
65
  8
0
 10
2389.2809822236409
 20
1229.191057369359
 30
0.0
 11
2389.2809822236409
 21
1029.1910543693591
 31
0.0
  0
LINE
  5
66
  8
0
 10
2389.2809822236409
 20
979.19105136935923
 30
0.0
 11
2389.2809822236409
 21
779.19105736935944
 31
0.0
  0
LINE
  5
67
  8
0
 10
2324.2809862236431
 20
1779.1910543693591
 30
0.0
 11
2324.2809862236431
 21
1579.191051369359
 31
0.0
  0
LINE
  5
68
  8
0
 10
2324.2809862236431
 20
1529.191057369359
 30
0.0
 11
2324.2809862236431
 21
1329.1910543693591
 31
0.0
  0
LINE
  5
69
  8
0
 10
2324.2809862236431
 20
1279.191051369359
 30
0.0
 11
2324.2809862236431
 21
1079.191057369359
 31
0.0
  0
LINE
  5
6A
  8
0
 10
2324.2809862236431
 20
1029.1910543693591
 30
0.0
 11
2324.2809862236431
 21
829.19105136935923
 31
0.0
  0
LINE
  5
6B
  8
0
 10
2309.2809832236421
 20
1829.191057369359
 30
0.0
 11
2309.2809832236421
 21
1729.191051369359
 31
0.0
  0
LINE
  5
6C
  8
0
 10
2309.2809832236421
 20
1679.191057369359
 30
0.0
 11
2309.2809832236421
 21
1479.1910543693591
 31
0.0
  0
LINE
  5
6D
  8
0
 10
2309.2809832236421
 20
1429.191051369359
 30
0.0
 11
2309.2809832236421
 21
1229.191057369359
 31
0.0
  0
LINE
  5
6E
  8
0
 10
2309.2809832236421
 20
1179.1910543693591
 30
0.0
 11
2309.2809832236421
 21
979.19105136935923
 31
0.0
  0
LINE
  5
6F
  8
0
 10
2309.2809832236421
 20
929.19105736935933
 30
0.0
 11
2309.2809832236421
 21
754.36284606690219
 31
0.0
  0
LINE
  5
72
  8
0
 10
2324.2809862236431
 20
779.19105736935944
 30
0.0
 11
2324.2809862236431
 21
754.36284606690219
 31
0.0
  0
LINE
  5
75
  8
0
 10
2399.2809902236431
 20
754.36284606690219
 30
0.0
 11
2399.2809902236431
 21
1829.191057369359
 31
0.0
  0
LINE
  5
76
  8
0
 10
2399.2809902236431
 20
1829.191057369359
 30
0.0
 11
2299.280984223642
 21
1829.191057369359
 31
0.0
  0
LINE
  5
77
  8
0
 10
2299.280984223642
 20
1829.191057369359
 30
0.0
 11
2299.280984223642
 21
754.36284606690219
 31
0.0
  0
LINE
  5
78
  8
0
 10
2299.280984223642
 20
1129.191057369359
 30
0.0
 11
899.28099022364211
 21
1129.191057369359
 31
0.0
  0
LINE
  5
79
  8
0
 10
2399.2809842236429
 20
1129.191057369359
 30
0.0
 11
2569.2809842236429
 21
1129.191057369359
 31
0.0
  0
LINE
  5
81
  8
0
 10
849.28098722364166
 20
1829.191057369359
 30
0.0
 11
849.28098722364166
 21
1737.191057369359
 31
0.0
  0
LINE
  5
82
  8
0
 10
849.28098722364166
 20
1679.191057369359
 30
0.0
 11
849.28098722364166
 21
1479.1910543693591
 31
0.0
  0
LINE
  5
83
  8
0
 10
849.28098722364166
 20
1421.191057369359
 30
0.0
 11
849.28098722364166
 21
1229.191057369359
 31
0.0
  0
LINE
  5
84
  8
0
 10
849.28098722364166
 20
1179.1910543693591
 30
0.0
 11
849.28098722364166
 21
979.19105136935923
 31
0.0
  0
LINE
  5
85
  8
0
 10
849.28098722364166
 20
929.19105736935933
 30
0.0
 11
849.28098722364166
 21
754.36284606690219
 31
0.0
  0
LINE
  5
86
  8
0
 10
874.28098922364165
 20
1829.191057369359
 30
0.0
 11
874.28098922364165
 21
1629.1910543693591
 31
0.0
  0
LINE
  5
87
  8
0
 10
874.28098922364165
 20
1579.191051369359
 30
0.0
 11
874.28098922364165
 21
1379.191057369359
 31
0.0
  0
LINE
  5
88
  8
0
 10
874.28098922364165
 20
1329.1910543693591
 30
0.0
 11
874.28098922364165
 21
1129.191051369359
 31
0.0
  0
LINE
  5
89
  8
0
 10
874.28098922364165
 20
1079.191057369359
 30
0.0
 11
874.28098922364165
 21
879.19105436935922
 31
0.0
  0
LINE
  5
8A
  8
0
 10
874.28098922364165
 20
829.19105136935923
 30
0.0
 11
874.28098922364165
 21
754.36284606690219
 31
0.0
  0
LINE
  5
8B
  8
0
 10
889.28098222364167
 20
1829.191057369359
 30
0.0
 11
889.28098222364167
 21
1779.1910543693591
 31
0.0
  0
LINE
  5
8C
  8
0
 10
889.28098222364167
 20
1729.191051369359
 30
0.0
 11
889.28098222364167
 21
1529.191057369359
 31
0.0
  0
LINE
  5
8D
  8
0
 10
889.28098222364167
 20
1479.1910543693591
 30
0.0
 11
889.28098222364167
 21
1279.191051369359
 31
0.0
  0
LINE
  5
8E
  8
0
 10
889.28098222364167
 20
1229.191057369359
 30
0.0
 11
889.28098222364167
 21
1029.1910543693591
 31
0.0
  0
LINE
  5
8F
  8
0
 10
889.28098222364167
 20
979.19105136935923
 30
0.0
 11
889.28098222364167
 21
779.19105736935944
 31
0.0
  0
LINE
  5
90
  8
0
 10
824.280986223642
 20
1779.1910543693591
 30
0.0
 11
824.280986223642
 21
1579.191051369359
 31
0.0
  0
LINE
  5
91
  8
0
 10
824.280986223642
 20
1529.191057369359
 30
0.0
 11
824.280986223642
 21
1329.1910543693591
 31
0.0
  0
LINE
  5
92
  8
0
 10
824.280986223642
 20
1279.191051369359
 30
0.0
 11
824.280986223642
 21
1079.191057369359
 31
0.0
  0
LINE
  5
93
  8
0
 10
824.280986223642
 20
1029.1910543693591
 30
0.0
 11
824.280986223642
 21
829.19105136935923
 31
0.0
  0
LINE
  5
94
  8
0
 10
809.28098322364167
 20
1829.191057369359
 30
0.0
 11
809.28098322364167
 21
1729.191051369359
 31
0.0
  0
LINE
  5
95
  8
0
 10
809.28098322364167
 20
1679.191057369359
 30
0.0
 11
809.28098322364167
 21
1479.1910543693591
 31
0.0
  0
LINE
  5
96
  8
0
 10
809.28098322364167
 20
1429.191051369359
 30
0.0
 11
809.28098322364167
 21
1229.191057369359
 31
0.0
  0
LINE
  5
97
  8
0
 10
809.28098322364167
 20
1179.1910543693591
 30
0.0
 11
809.28098322364167
 21
979.19105136935923
 31
0.0
  0
LINE
  5
98
  8
0
 10
809.28098322364167
 20
929.19105736935933
 30
0.0
 11
809.28098322364167
 21
754.36284606690219
 31
0.0
  0
LINE
  5
9B
  8
0
 10
824.280986223642
 20
779.19105736935944
 30
0.0
 11
824.280986223642
 21
754.36284606690219
 31
0.0
  0
LINE
  5
9E
  8
0
 10
899.28099022364211
 20
754.36284606690219
 30
0.0
 11
899.28099022364211
 21
1829.191057369359
 31
0.0
  0
LINE
  5
9F
  8
0
 10
899.28099022364211
 20
1829.191057369359
 30
0.0
 11
799.28098422364155
 21
1829.191057369359
 31
0.0
  0
LINE
  5
A0
  8
0
 10
799.28098422364155
 20
1829.191057369359
 30
0.0
 11
799.28098422364155
 21
754.36284606690219
 31
0.0
  0
LINE
  5
A1
  8
0
 10
799.28098422364155
 20
1129.191057369359
 30
0.0
 11
649.28098422364201
 21
1129.191057369359
 31
0.0
  0
CIRCLE
  5
FD
  8
0
 10
2349.2809872236421
 20
2229.1910513693601
 30
0.0
 40
12.5
  0
CIRCLE
  5
FE
  8
0
 10
2349.2809872236421
 20
2229.1910513693601
 30
0.0
 40
25.0
  0
CIRCLE
  5
FF
  8
0
 10
2349.2809872236421
 20
2229.1910513693601
 30
0.0
 40
37.5
  0
CIRCLE
  5
100
  8
0
 10
849.28098722364166
 20
2229.1910513693601
 30
0.0
 40
12.5
  0
CIRCLE
  5
101
  8
0
 10
849.28098722364166
 20
2229.1910513693601
 30
0.0
 40
25.0
  0
CIRCLE
  5
102
  8
0
 10
849.28098722364166
 20
2229.1910513693601
 30
0.0
 40
37.5
  0
LINE
  5
103
  8
0
 10
749.28098422364224
 20
2234.1910513693588
 30
0.0
 11
739.28098422364269
 21
2224.1910513693588
 31
0.0
  0
LINE
  5
104
  8
0
 10
744.28098422364246
 20
2224.1910513693588
 30
0.0
 11
754.28098422364269
 21
2234.1910513693588
 31
0.0
  0
LINE
  5
105
  8
0
 10
949.28098422364269
 20
2234.1910513693588
 30
0.0
 11
939.28098422364269
 21
2224.1910513693588
 31
0.0
  0
LINE
  5
106
  8
0
 10
944.28098422364246
 20
2224.1910513693588
 30
0.0
 11
954.28098422364235
 21
2234.1910513693588
 31
0.0
  0
LINE
  5
107
  8
0
 10
1149.280984223642
 20
2234.1910513693588
 30
0.0
 11
1139.280984223642
 21
2224.1910513693588
 31
0.0
  0
LINE
  5
108
  8
0
 10
1144.280984223642
 20
2224.1910513693588
 30
0.0
 11
1154.280984223642
 21
2234.1910513693588
 31
0.0
  0
LINE
  5
109
  8
0
 10
1349.280984223642
 20
2234.1910513693588
 30
0.0
 11
1339.280984223642
 21
2224.1910513693588
 31
0.0
  0
LINE
  5
10A
  8
0
 10
1344.280984223642
 20
2224.1910513693588
 30
0.0
 11
1354.280984223642
 21
2234.1910513693588
 31
0.0
  0
LINE
  5
10B
  8
0
 10
1549.280984223642
 20
2234.1910513693588
 30
0.0
 11
1539.280984223642
 21
2224.1910513693588
 31
0.0
  0
LINE
  5
10C
  8
0
 10
1544.280984223642
 20
2224.1910513693588
 30
0.0
 11
1554.280984223642
 21
2234.1910513693588
 31
0.0
  0
LINE
  5
10D
  8
0
 10
1749.280984223642
 20
2234.1910513693588
 30
0.0
 11
1739.280984223642
 21
2224.1910513693588
 31
0.0
  0
LINE
  5
10E
  8
0
 10
1744.280984223642
 20
2224.1910513693588
 30
0.0
 11
1754.280984223642
 21
2234.1910513693588
 31
0.0
  0
LINE
  5
10F
  8
0
 10
1949.280984223642
 20
2234.1910513693588
 30
0.0
 11
1939.280984223642
 21
2224.1910513693588
 31
0.0
  0
LINE
  5
110
  8
0
 10
1944.280984223642
 20
2224.1910513693588
 30
0.0
 11
1954.280984223642
 21
2234.1910513693588
 31
0.0
  0
LINE
  5
111
  8
0
 10
2149.2809842236429
 20
2234.1910513693588
 30
0.0
 11
2139.280984223642
 21
2224.1910513693588
 31
0.0
  0
LINE
  5
112
  8
0
 10
2144.2809842236429
 20
2224.1910513693588
 30
0.0
 11
2154.2809842236429
 21
2234.1910513693588
 31
0.0
  0
LINE
  5
113
  8
0
 10
2449.2809842236429
 20
2234.1910513693588
 30
0.0
 11
2439.2809842236429
 21
2224.1910513693588
 31
0.0
  0
LINE
  5
114
  8
0
 10
2444.2809842236429
 20
2224.1910513693588
 30
0.0
 11
2454.2809842236429
 21
2234.1910513693588
 31
0.0
  0
LINE
  5
139
  8
0
 10
749.28098422364224
 20
1734.191057369359
 30
0.0
 11
739.28098422364269
 21
1724.191057369359
 31
0.0
  0
LINE
  5
13A
  8
0
 10
744.28098422364246
 20
1724.191057369359
 30
0.0
 11
754.28098422364269
 21
1734.191057369359
 31
0.0
  0
LINE
  5
13D
  8
0
 10
2449.2809842236429
 20
1734.191057369359
 30
0.0
 11
2439.2809842236429
 21
1724.191057369359
 31
0.0
  0
LINE
  5
13E
  8
0
 10
2444.2809842236429
 20
1724.191057369359
 30
0.0
 11
2454.2809842236429
 21
1734.191057369359
 31
0.0
  0
LINE
  5
141
  8
0
 10
949.28098422364269
 20
1734.191057369359
 30
0.0
 11
939.28098422364269
 21
1724.191057369359
 31
0.0
  0
LINE
  5
142
  8
0
 10
944.28098422364246
 20
1724.191057369359
 30
0.0
 11
954.28098422364235
 21
1734.191057369359
 31
0.0
  0
LINE
  5
143
  8
0
 10
1149.280984223642
 20
1734.191057369359
 30
0.0
 11
1139.280984223642
 21
1724.191057369359
 31
0.0
  0
LINE
  5
144
  8
0
 10
1144.280984223642
 20
1724.191057369359
 30
0.0
 11
1154.280984223642
 21
1734.191057369359
 31
0.0
  0
LINE
  5
145
  8
0
 10
1349.280984223642
 20
1734.191057369359
 30
0.0
 11
1339.280984223642
 21
1724.191057369359
 31
0.0
  0
LINE
  5
146
  8
0
 10
1344.280984223642
 20
1724.191057369359
 30
0.0
 11
1354.280984223642
 21
1734.191057369359
 31
0.0
  0
LINE
  5
147
  8
0
 10
1549.280984223642
 20
1734.191057369359
 30
0.0
 11
1539.280984223642
 21
1724.191057369359
 31
0.0
  0
LINE
  5
148
  8
0
 10
1544.280984223642
 20
1724.191057369359
 30
0.0
 11
1554.280984223642
 21
1734.191057369359
 31
0.0
  0
LINE
  5
149
  8
0
 10
1749.280984223642
 20
1734.191057369359
 30
0.0
 11
1739.280984223642
 21
1724.191057369359
 31
0.0
  0
LINE
  5
14A
  8
0
 10
1744.280984223642
 20
1724.191057369359
 30
0.0
 11
1754.280984223642
 21
1734.191057369359
 31
0.0
  0
LINE
  5
14B
  8
0
 10
1949.280984223642
 20
1734.191057369359
 30
0.0
 11
1939.280984223642
 21
1724.191057369359
 31
0.0
  0
LINE
  5
14C
  8
0
 10
1944.280984223642
 20
1724.191057369359
 30
0.0
 11
1954.280984223642
 21
1734.191057369359
 31
0.0
  0
LINE
  5
14D
  8
0
 10
2149.2809842236429
 20
1734.191057369359
 30
0.0
 11
2139.280984223642
 21
1724.191057369359
 31
0.0
  0
LINE
  5
14E
  8
0
 10
2144.2809842236429
 20
1724.191057369359
 30
0.0
 11
2154.2809842236429
 21
1734.191057369359
 31
0.0
  0
LINE
  5
169
  8
0
 10
799.28098422364155
 20
1734.191028369358
 30
0.0
 11
899.28099022364211
 21
1734.191028369358
 31
0.0
  0
LINE
  5
16A
  8
0
 10
899.28099022364211
 20
1724.1910283693589
 30
0.0
 11
799.28098422364155
 21
1724.1910283693589
 31
0.0
  0
LINE
  5
16D
  8
0
 10
2299.280984223642
 20
1734.191028369358
 30
0.0
 11
2399.2809902236431
 21
1734.191028369358
 31
0.0
  0
LINE
  5
16E
  8
0
 10
2399.2809902236431
 20
1724.1910283693589
 30
0.0
 11
2299.280984223642
 21
1724.1910283693589
 31
0.0
  0
LINE
  5
171
  8
0
 10
3526.6195549771801
 20
1129.191057369359
 30
0.0
 11
3526.6195549771801
 21
629.19105736935899
 31
0.0
  0
LINE
  5
172
  8
0
 10
3526.6195549771801
 20
629.19105736935899
 30
0.0
 11
3536.1845999771831
 21
674.19105736935933
 31
0.0
  0
LINE
  5
173
  8
0
 10
3526.6195549771801
 20
629.19105736935899
 30
0.0
 11
3517.0545099771798
 21
674.19105736935933
 31
0.0
  0
LINE
  5
174
  8
0
 10
3526.6195549771801
 20
1129.191057369359
 30
0.0
 11
3536.1845999771831
 21
1084.191057369359
 31
0.0
  0
LINE
  5
175
  8
0
 10
3526.6195549771801
 20
1129.191057369359
 30
0.0
 11
3517.0545099771798
 21
1084.191057369359
 31
0.0
  0
LINE
  5
179
  8
0
 10
3265.6195609771821
 20
1829.191057369359
 30
0.0
 11
3655.6195549771801
 21
1829.191057369359
 31
0.0
  0
LINE
  5
17A
  8
0
 10
3244.5839632789011
 20
629.19105736935899
 30
0.0
 11
3655.6195549771801
 21
629.19105736935899
 31
0.0
  0
LINE
  5
17B
  8
0
 10
3646.6195549771801
 20
1829.191057369359
 30
0.0
 11
3646.6195549771801
 21
629.19105736935899
 31
0.0
  0
LINE
  5
17C
  8
0
 10
3646.6195549771801
 20
629.19105736935899
 30
0.0
 11
3656.1845999771799
 21
674.19105736935933
 31
0.0
  0
LINE
  5
17D
  8
0
 10
3646.6195549771801
 20
629.19105736935899
 30
0.0
 11
3637.0545099771798
 21
674.19105736935933
 31
0.0
  0
LINE
  5
17E
  8
0
 10
3646.6195549771801
 20
1829.191057369359
 30
0.0
 11
3656.1845999771799
 21
1784.191057369359
 31
0.0
  0
LINE
  5
17F
  8
0
 10
3646.6195549771801
 20
1829.191057369359
 30
0.0
 11
3637.0545099771798
 21
1784.191057369359
 31
0.0
  0
TEXT
  5
180
  8
0
 10
3637.6195549771801
 20
1157.1910563693591
 30
0.0
 40
45.0
  1
1
 50
90.000003000000007
 41
0.8
  0
TEXT
  5
181
  8
0
 10
3637.6195549771801
 20
1193.191057369359
 30
0.0
 40
45.0
  1
2
 50
90.000003000000007
 41
0.8
  0
TEXT
  5
182
  8
0
 10
3637.6195549771801
 20
1229.191057369359
 30
0.0
 40
45.0
  1
0
 50
90.000003000000007
 41
0.8
  0
TEXT
  5
183
  8
0
 10
3637.6195549771801
 20
1265.1910583693591
 30
0.0
 40
45.0
  1
0
 50
90.000003000000007
 41
0.8
  0
LINE
  5
184
  8
0
 10
3265.6195609771821
 20
1829.191057369359
 30
0.0
 11
3535.619554977181
 21
1829.191057369359
 31
0.0
  0
LINE
  5
185
  8
0
 10
3265.6195609771821
 20
1729.191057369359
 30
0.0
 11
3535.619554977181
 21
1729.191057369359
 31
0.0
  0
LINE
  5
186
  8
0
 10
3526.6195549771801
 20
1829.191057369359
 30
0.0
 11
3526.6195549771801
 21
1729.191057369359
 31
0.0
  0
LINE
  5
187
  8
0
 10
3526.6195549771801
 20
1729.191057369359
 30
0.0
 11
3536.1845999771831
 21
1774.191057369359
 31
0.0
  0
LINE
  5
188
  8
0
 10
3526.6195549771801
 20
1729.191057369359
 30
0.0
 11
3517.0545099771798
 21
1774.191057369359
 31
0.0
  0
LINE
  5
189
  8
0
 10
3526.6195549771801
 20
1829.191057369359
 30
0.0
 11
3536.1845999771831
 21
1784.191057369359
 31
0.0
  0
LINE
  5
18A
  8
0
 10
3526.6195549771801
 20
1829.191057369359
 30
0.0
 11
3517.0545099771798
 21
1784.191057369359
 31
0.0
  0
LINE
  5
18F
  8
0
 10
3526.6195549771801
 20
1729.191057369359
 30
0.0
 11
3526.6195549771801
 21
1429.191057369359
 31
0.0
  0
LINE
  5
192
  8
0
 10
3526.6195549771801
 20
1729.191057369359
 30
0.0
 11
3536.1845999771831
 21
1684.191057369359
 31
0.0
  0
LINE
  5
193
  8
0
 10
3526.6195549771801
 20
1729.191057369359
 30
0.0
 11
3517.0545099771798
 21
1684.191057369359
 31
0.0
  0
LINE
  5
197
  8
0
 10
3526.6195549771801
 20
1429.191057369359
 30
0.0
 11
3526.6195549771801
 21
1129.191057369359
 31
0.0
  0
LINE
  5
198
  8
0
 10
3526.6195549771801
 20
1129.191057369359
 30
0.0
 11
3536.1845999771831
 21
1174.191057369359
 31
0.0
  0
LINE
  5
199
  8
0
 10
3526.6195549771801
 20
1129.191057369359
 30
0.0
 11
3517.0545099771798
 21
1174.191057369359
 31
0.0
  0
LINE
  5
19F
  8
0
 10
799.53162922364174
 20
2234.1910223693599
 30
0.0
 11
649.28098422364201
 21
2234.1910513693588
 31
0.0
  0
LINE
  5
1A0
  8
0
 10
649.28098422364201
 20
2224.1910513693588
 30
0.0
 11
799.53162922364174
 21
2224.191022369359
 31
0.0
  0
LINE
  5
1A1
  8
0
 10
2299.5316292236421
 20
2234.1910223693599
 30
0.0
 11
899.03034722364305
 21
2234.1910223693599
 31
0.0
  0
LINE
  5
1A2
  8
0
 10
899.03034722364305
 20
2224.191022369359
 30
0.0
 11
2299.5316292236421
 21
2224.191022369359
 31
0.0
  0
LINE
  5
1A3
  8
0
 10
2399.0303472236419
 20
2234.1910223693599
 30
0.0
 11
2499.2809842236429
 21
2234.1910513693588
 31
0.0
  0
LINE
  5
1A4
  8
0
 10
2499.2809842236429
 20
2224.1910513693588
 30
0.0
 11
2399.0303472236419
 21
2224.191022369359
 31
0.0
  0
LINE
  5
1A5
  8
0
 10
849.28098722364166
 20
2170.1910483693591
 30
0.0
 11
849.28098722364166
 21
2050.1910483693591
 31
0.0
  0
LINE
  5
1A6
  8
0
 10
2349.2809872236421
 20
2170.1910483693591
 30
0.0
 11
2349.2809872236421
 21
2050.1910483693591
 31
0.0
  0
LINE
  5
1A7
  8
0
 10
849.28098722364166
 20
2059.1910483693591
 30
0.0
 11
2349.2809872236421
 21
2059.1910483693591
 31
0.0
  0
LINE
  5
1A8
  8
0
 10
2349.2809872236421
 20
2059.1910483693591
 30
0.0
 11
2304.2809872236421
 21
2068.756093369359
 31
0.0
  0
LINE
  5
1A9
  8
0
 10
2349.2809872236421
 20
2059.1910483693591
 30
0.0
 11
2304.2809872236421
 21
2049.6260033693588
 31
0.0
  0
LINE
  5
1AA
  8
0
 10
849.28098722364166
 20
2059.1910483693591
 30
0.0
 11
894.28098722364177
 21
2068.756093369359
 31
0.0
  0
LINE
  5
1AB
  8
0
 10
849.28098722364166
 20
2059.1910483693591
 30
0.0
 11
894.28098722364177
 21
2049.6260033693588
 31
0.0
  0
TEXT
  5
1AC
  8
0
 10
1527.280986223642
 20
2068.1910483693591
 30
0.0
 40
45.0
  1
1
 41
0.8
  0
TEXT
  5
1AD
  8
0
 10
1563.2809872236419
 20
2068.1910483693591
 30
0.0
 40
45.0
  1
5
 41
0.8
  0
TEXT
  5
1AE
  8
0
 10
1599.2809872236419
 20
2068.1910483693591
 30
0.0
 40
45.0
  1
0
 41
0.8
  0
TEXT
  5
1AF
  8
0
 10
1635.280988223642
 20
2068.1910483693591
 30
0.0
 40
45.0
  1
0
 41
0.8
  0
LINE
  5
1B0
  8
0
 10
2408.2809902236431
 20
1829.191057369359
 30
0.0
 11
2678.2809842236429
 21
1829.191057369359
 31
0.0
  0
LINE
  5
1B1
  8
0
 10
2395.0030969383952
 20
629.19105736935899
 30
0.0
 11
2678.2809842236429
 21
629.19105736935899
 31
0.0
  0
LINE
  5
1B2
  8
0
 10
2669.2809842236429
 20
1829.191057369359
 30
0.0
 11
2669.2809842236429
 21
629.19105736935899
 31
0.0
  0
LINE
  5
1B3
  8
0
 10
2669.2809842236429
 20
629.19105736935899
 30
0.0
 11
2678.8460292236418
 21
674.19105736935933
 31
0.0
  0
LINE
  5
1B4
  8
0
 10
2669.2809842236429
 20
629.19105736935899
 30
0.0
 11
2659.7159392236431
 21
674.19105736935933
 31
0.0
  0
LINE
  5
1B5
  8
0
 10
2669.2809842236429
 20
1829.191057369359
 30
0.0
 11
2678.8460292236418
 21
1784.191057369359
 31
0.0
  0
LINE
  5
1B6
  8
0
 10
2669.2809842236429
 20
1829.191057369359
 30
0.0
 11
2659.7159392236431
 21
1784.191057369359
 31
0.0
  0
TEXT
  5
1B7
  8
0
 10
2660.2809842236429
 20
1157.1910563693591
 30
0.0
 40
45.0
  1
1
 50
90.000003000000007
 41
0.8
  0
TEXT
  5
1B8
  8
0
 10
2660.2809842236429
 20
1193.191057369359
 30
0.0
 40
45.0
  1
2
 50
90.000003000000007
 41
0.8
  0
TEXT
  5
1B9
  8
0
 10
2660.2809842236429
 20
1229.191057369359
 30
0.0
 40
45.0
  1
0
 50
90.000003000000007
 41
0.8
  0
TEXT
  5
1BA
  8
0
 10
2660.2809842236429
 20
1265.1910583693591
 30
0.0
 40
45.0
  1
0
 50
90.000003000000007
 41
0.8
  0
LINE
  5
1BB
  8
0
 10
2408.2809902236431
 20
1829.191057369359
 30
0.0
 11
2678.2809842236429
 21
1829.191057369359
 31
0.0
  0
LINE
  5
1BC
  8
0
 10
2299.280984223642
 20
1729.191057369359
 30
0.0
 11
2149.2809842236429
 21
1579.191057369359
 31
0.0
  0
LINE
  5
1BD
  8
0
 10
2299.280984223642
 20
1729.191057369359
 30
0.0
 11
2274.2246872236428
 21
1690.607743369359
 31
0.0
  0
LINE
  5
1BE
  8
0
 10
2299.280984223642
 20
1729.191057369359
 30
0.0
 11
2260.697671223641
 21
1704.1347603693589
 31
0.0
  0
LINE
  5
1BF
  8
0
 10
2149.2809842236429
 20
1579.191057369359
 30
0.0
 11
1922.9927197331831
 21
1579.191057369359
 31
0.0
  0
LINE
  5
1C4
  8
0
 10
799.28098422364155
 20
1734.191028369358
 30
0.0
 11
649.28098422364201
 21
1734.191057369359
 31
0.0
  0
LINE
  5
1C5
  8
0
 10
649.28098422364201
 20
1724.191057369359
 30
0.0
 11
799.28098422364155
 21
1724.1910283693589
 31
0.0
  0
LINE
  5
1C8
  8
0
 10
2399.2809902236431
 20
1734.191028369358
 30
0.0
 11
2499.2809842236429
 21
1734.191057369359
 31
0.0
  0
LINE
  5
1C9
  8
0
 10
2499.2809842236429
 20
1724.191057369359
 30
0.0
 11
2399.2809902236431
 21
1724.1910283693589
 31
0.0
  0
LINE
  5
1CC
  8
0
 10
2299.280984223642
 20
1734.191028369358
 30
0.0
 11
899.28099022364211
 21
1734.191028369358
 31
0.0
  0
LINE
  5
1CD
  8
0
 10
899.28099022364211
 20
1724.1910283693589
 30
0.0
 11
2299.280984223642
 21
1724.1910283693589
 31
0.0
  0
LINE
  5
1D0
  8
0
 10
1042.7716822236421
 20
1734.191057369359
 30
0.0
 11
1242.7716822236421
 21
1524.191057369359
 31
0.0
  0
LINE
  5
1D1
  8
0
 10
1042.7716822236421
 20
1734.191057369359
 30
0.0
 11
1080.732577223642
 21
1708.2014333693589
 31
0.0
  0
LINE
  5
1D2
  8
0
 10
1042.7716822236421
 20
1734.191057369359
 30
0.0
 11
1066.879753223642
 21
1695.0082673693589
 31
0.0
  0
LINE
  5
1D3
  8
0
 10
1242.7716822236421
 20
1524.191057369359
 30
0.0
 11
1395.7716862236421
 21
1524.191057369359
 31
0.0
  0
TEXT
  5
1D4
  8
0
 10
1278.7716842236421
 20
1533.191057369359
 30
0.0
 40
45.0
  1
ロ
 41
0.8
  0
TEXT
  5
1D5
  8
0
 10
1314.771685223642
 20
1533.191057369359
 30
0.0
 40
45.0
  1
ー
 41
0.8
  0
TEXT
  5
1D6
  8
0
 10
1350.771685223642
 20
1533.191057369359
 30
0.0
 40
45.0
  1
プ
 41
0.8
  0
LINE
  5
225
  8
0
 10
1599.2809872236419
 20
1129.191057369359
 30
0.0
 11
1499.2809872236419
 21
1029.191057369359
 31
0.0
  0
LINE
  5
226
  8
0
 10
1524.2809872236419
 20
1029.191057369359
 30
0.0
 11
1624.2809872236419
 21
1129.191057369359
 31
0.0
  0
LINE
  5
227
  8
0
 10
1511.7809872236419
 20
1041.691057369359
 30
0.0
 11
1486.7809872236419
 21
1066.691057369359
 31
0.0
  0
LINE
  5
228
  8
0
 10
1499.2809872236419
 20
1079.191057369359
 30
0.0
 11
1524.2809872236419
 21
1054.191057369359
 31
0.0
  0
LINE
  5
229
  8
0
 10
1574.2809872236419
 20
1029.191057369359
 30
0.0
 11
1674.2809872236419
 21
1129.191057369359
 31
0.0
  0
LINE
  5
22A
  8
0
 10
1599.2809872236419
 20
1029.191057369359
 30
0.0
 11
1699.2809872236419
 21
1129.191057369359
 31
0.0
  0
LINE
  5
22B
  8
0
 10
1599.2809872236419
 20
1054.191057369359
 30
0.0
 11
1574.2809872236419
 21
1079.191057369359
 31
0.0
  0
LINE
  5
22C
  8
0
 10
1586.7809872236419
 20
1091.691057369359
 30
0.0
 11
1611.7809872236419
 21
1066.691057369359
 31
0.0
  0
LINE
  5
22D
  8
0
 10
1686.7809872236419
 20
1066.691057369359
 30
0.0
 11
1661.780987223641
 21
1091.691057369359
 31
0.0
  0
LINE
  5
22E
  8
0
 10
1674.2809872236419
 20
1104.191057369359
 30
0.0
 11
1699.2809872236419
 21
1079.191057369359
 31
0.0
  0
LINE
  5
22F
  8
0
 10
2299.280984223642
 20
1249.191057369359
 30
0.0
 11
2399.2809902236431
 21
1249.191057369359
 31
0.0
  0
TEXT
  5
230
  8
0
 10
2137.2809822236409
 20
1258.191057369359
 30
0.0
 40
45.0
  1
%%c
 41
0.8
  0
TEXT
  5
231
  8
0
 10
2173.280983223643
 20
1258.191057369359
 30
0.0
 40
45.0
  1
1
 41
0.8
  0
TEXT
  5
232
  8
0
 10
2209.2809832236421
 20
1258.191057369359
 30
0.0
 40
45.0
  1
0
 41
0.8
  0
TEXT
  5
233
  8
0
 10
2245.2809842236429
 20
1258.191057369359
 30
0.0
 40
45.0
  1
0
 41
0.8
  0
LINE
  5
234
  8
0
 10
2128.2809822236432
 20
1249.191057369359
 30
0.0
 11
2299.280984223642
 21
1249.191057369359
 31
0.0
  0
LINE
  5
235
  8
0
 10
2299.280984223642
 20
1249.191057369359
 30
0.0
 11
2254.2809842236429
 21
1258.756102369359
 31
0.0
  0
LINE
  5
236
  8
0
 10
2299.280984223642
 20
1249.191057369359
 30
0.0
 11
2254.2809842236429
 21
1239.6260123693589
 31
0.0
  0
LINE
  5
237
  8
0
 10
2466.7809902236431
 20
1249.191057369359
 30
0.0
 11
2399.2809902236431
 21
1249.191057369359
 31
0.0
  0
LINE
  5
238
  8
0
 10
2399.2809902236431
 20
1249.191057369359
 30
0.0
 11
2444.2809902236431
 21
1239.6260123693589
 31
0.0
  0
LINE
  5
239
  8
0
 10
2399.2809902236431
 20
1249.191057369359
 30
0.0
 11
2444.2809902236431
 21
1258.756102369359
 31
0.0
  0
LINE
  5
3FB
  8
0
 10
4080.0
 20
2700.0
 30
0.0
 11
0.0
 21
2700.0
 31
0.0
  0
LINE
  5
3FC
  8
0
 10
0.0
 20
0.0
 30
0.0
 11
4080.0
 21
0.0
 31
0.0
  0
LINE
  5
3FD
  8
0
 10
4080.0
 20
0.0
 30
0.0
 11
4080.0
 21
2700.0
 31
0.0
  0
LINE
  5
3FE
  8
0
 10
0.0
 20
2700.0
 30
0.0
 11
0.0
 21
0.0
 31
0.0
  0
TEXT
  5
412
  8
0
 10
1925.244202835423
 20
1584.906365252946
 30
0.0
 40
45.0
  1
\U+03C616孔
  0
LINE
  5
432
  8
0
 10
799.28098422364155
 20
754.36284606690219
 30
0.0
 11
849.28098722364166
 21
629.19105736935899
 31
0.0
  0
LINE
  5
433
  8
0
 10
849.28098722364166
 20
629.19105736935899
 30
0.0
 11
899.28099022364211
 21
754.36284606690219
 31
0.0
  0
LINE
  5
434
  8
0
 10
2349.2809872236421
 20
629.19105736935899
 30
0.0
 11
2399.2809902236431
 21
754.36284606690219
 31
0.0
  0
LINE
  5
435
  8
0
 10
2299.2809842236429
 20
754.36284606690219
 30
0.0
 11
2349.2809872236421
 21
629.19105736935899
 31
0.0
  0
LINE
  5
436
  8
0
 10
3206.6195579771802
 20
629.19105736935899
 30
0.0
 11
3256.6195609771798
 21
754.36284606690219
 31
0.0
  0
LINE
  5
437
  8
0
 10
3156.6195549771801
 20
754.36284606690219
 30
0.0
 11
3206.6195579771802
 21
629.19105736935899
 31
0.0
  0
CIRCLE
  5
4AF
  8
0
 10
3206.6195579771802
 20
1429.191057369359
 30
0.0
 40
8.0
  0
LINE
  5
4B0
  8
0
 10
749.28098422364224
 20
1434.191057369359
 30
0.0
 11
739.28098422364269
 21
1424.191057369359
 31
0.0
  0
LINE
  5
4B1
  8
0
 10
744.28098422364246
 20
1424.191057369359
 30
0.0
 11
754.28098422364269
 21
1434.191057369359
 31
0.0
  0
LINE
  5
4B2
  8
0
 10
2449.2809842236429
 20
1434.191057369359
 30
0.0
 11
2439.2809842236429
 21
1424.191057369359
 31
0.0
  0
LINE
  5
4B3
  8
0
 10
2444.2809842236429
 20
1424.191057369359
 30
0.0
 11
2454.2809842236429
 21
1434.191057369359
 31
0.0
  0
LINE
  5
4B4
  8
0
 10
949.28098422364269
 20
1434.191057369359
 30
0.0
 11
939.28098422364269
 21
1424.191057369359
 31
0.0
  0
LINE
  5
4B5
  8
0
 10
944.28098422364246
 20
1424.191057369359
 30
0.0
 11
954.28098422364235
 21
1434.191057369359
 31
0.0
  0
LINE
  5
4B6
  8
0
 10
1149.280984223642
 20
1434.191057369359
 30
0.0
 11
1139.280984223642
 21
1424.191057369359
 31
0.0
  0
LINE
  5
4B7
  8
0
 10
1144.280984223642
 20
1424.191057369359
 30
0.0
 11
1154.280984223642
 21
1434.191057369359
 31
0.0
  0
LINE
  5
4B8
  8
0
 10
1349.280984223642
 20
1434.191057369359
 30
0.0
 11
1339.280984223642
 21
1424.191057369359
 31
0.0
  0
LINE
  5
4B9
  8
0
 10
1344.280984223642
 20
1424.191057369359
 30
0.0
 11
1354.280984223642
 21
1434.191057369359
 31
0.0
  0
LINE
  5
4BA
  8
0
 10
1549.280984223642
 20
1434.191057369359
 30
0.0
 11
1539.280984223642
 21
1424.191057369359
 31
0.0
  0
LINE
  5
4BB
  8
0
 10
1544.280984223642
 20
1424.191057369359
 30
0.0
 11
1554.280984223642
 21
1434.191057369359
 31
0.0
  0
LINE
  5
4BC
  8
0
 10
1749.280984223642
 20
1434.191057369359
 30
0.0
 11
1739.280984223642
 21
1424.191057369359
 31
0.0
  0
LINE
  5
4BD
  8
0
 10
1744.280984223642
 20
1424.191057369359
 30
0.0
 11
1754.280984223642
 21
1434.191057369359
 31
0.0
  0
LINE
  5
4BE
  8
0
 10
1949.280984223642
 20
1434.191057369359
 30
0.0
 11
1939.280984223642
 21
1424.191057369359
 31
0.0
  0
LINE
  5
4BF
  8
0
 10
1944.280984223642
 20
1424.191057369359
 30
0.0
 11
1954.280984223642
 21
1434.191057369359
 31
0.0
  0
LINE
  5
4C0
  8
0
 10
2149.2809842236429
 20
1434.191057369359
 30
0.0
 11
2139.280984223642
 21
1424.191057369359
 31
0.0
  0
LINE
  5
4C1
  8
0
 10
2144.2809842236429
 20
1424.191057369359
 30
0.0
 11
2154.2809842236429
 21
1434.191057369359
 31
0.0
  0
LINE
  5
4C2
  8
0
 10
799.28098422364155
 20
1434.1910283693589
 30
0.0
 11
899.28099022364211
 21
1434.1910283693589
 31
0.0
  0
LINE
  5
4C3
  8
0
 10
899.28099022364211
 20
1424.1910283693589
 30
0.0
 11
799.28098422364155
 21
1424.1910283693589
 31
0.0
  0
LINE
  5
4C4
  8
0
 10
2299.280984223642
 20
1434.1910283693589
 30
0.0
 11
2399.2809902236431
 21
1434.1910283693589
 31
0.0
  0
LINE
  5
4C5
  8
0
 10
2399.2809902236431
 20
1424.1910283693589
 30
0.0
 11
2299.280984223642
 21
1424.1910283693589
 31
0.0
  0
LINE
  5
4C6
  8
0
 10
3265.6195609771821
 20
1429.191057369359
 30
0.0
 11
3535.619554977181
 21
1429.191057369359
 31
0.0
  0
LINE
  5
4C7
  8
0
 10
3526.6195549771801
 20
1429.191057369359
 30
0.0
 11
3536.1845999771831
 21
1474.191057369359
 31
0.0
  0
LINE
  5
4C8
  8
0
 10
3526.6195549771801
 20
1429.191057369359
 30
0.0
 11
3517.0545099771798
 21
1474.191057369359
 31
0.0
  0
LINE
  5
4C9
  8
0
 10
3526.6195549771801
 20
1429.191057369359
 30
0.0
 11
3536.1845999771831
 21
1384.191057369359
 31
0.0
  0
LINE
  5
4CA
  8
0
 10
3526.6195549771801
 20
1429.191057369359
 30
0.0
 11
3517.0545099771798
 21
1384.191057369359
 31
0.0
  0
LINE
  5
4CB
  8
0
 10
799.28098422364155
 20
1434.1910283693589
 30
0.0
 11
649.28098422364201
 21
1434.191057369359
 31
0.0
  0
LINE
  5
4CC
  8
0
 10
649.28098422364201
 20
1424.191057369359
 30
0.0
 11
799.28098422364155
 21
1424.1910283693589
 31
0.0
  0
LINE
  5
4CD
  8
0
 10
2399.2809902236431
 20
1434.1910283693589
 30
0.0
 11
2499.2809842236429
 21
1434.191057369359
 31
0.0
  0
LINE
  5
4CE
  8
0
 10
2499.2809842236429
 20
1424.191057369359
 30
0.0
 11
2399.2809902236431
 21
1424.1910283693589
 31
0.0
  0
LINE
  5
4CF
  8
0
 10
2299.280984223642
 20
1434.1910283693589
 30
0.0
 11
899.28099022364211
 21
1434.1910283693589
 31
0.0
  0
LINE
  5
4D0
  8
0
 10
899.28099022364211
 20
1424.1910283693589
 30
0.0
 11
2299.280984223642
 21
1424.1910283693589
 31
0.0
  0
TEXT
  5
546
  8
0
 10
3506.6320088170769
 20
1739.81627805323
 30
0.0
 40
45.0
  1
100
 50
90.000003000000007
 41
0.8
  0
TEXT
  5
549
  8
0
 10
3506.6320088170769
 20
1246.775666909482
 30
0.0
 40
45.0
  1
300
 50
90.000003000000007
 41
0.8
  0
TEXT
  5
54A
  8
0
 10
3506.6320088170769
 20
1551.211267401447
 30
0.0
 40
45.0
  1
300
 50
90.000003000000007
 41
0.8
  0
TEXT
  5
54B
  8
0
 10
3506.6320088170769
 20
839.43021377507523
 30
0.0
 40
45.0
  1
500
 50
90.000003000000007
 41
0.8
  0
LINE
  5
C2D
  8
LAYER0014
  6
CONTINUOUS
 62
     7
 10
3705.0
 20
300.0
 30
0.0
 11
3705.0
 21
150.0
 31
0.0
  0
LINE
  5
C2E
  8
LAYER0014
  6
CONTINUOUS
 62
     7
 10
3230.0
 20
300.0
 30
0.0
 11
3230.0
 21
150.0
 31
0.0
  0
LINE
  5
C2F
  8
LAYER0014
  6
CONTINUOUS
 62
     7
 10
2880.0
 20
300.0
 30
0.0
 11
2880.0
 21
150.0
 31
0.0
  0
LINE
  5
C30
  8
LAYER0014
  6
CONTINUOUS
 62
     7
 10
2580.0
 20
300.0
 30
0.0
 11
2580.0
 21
0.0
 31
0.0
  0
LINE
  5
C31
  8
LAYER0014
  6
CONTINUOUS
 62
     7
 10
4080.0
 20
300.0
 30
0.0
 11
2580.0
 21
300.0
 31
0.0
  0
LINE
  5
C32
  8
LAYER0014
  6
CONTINUOUS
 62
     7
 10
4080.0
 20
225.0
 30
0.0
 11
2580.0
 21
225.0
 31
0.0
  0
LINE
  5
C33
  8
LAYER0014
  6
CONTINUOUS
 62
     7
 10
4080.0
 20
150.0
 30
0.0
 11
2580.0
 21
150.0
 31
0.0
  0
TEXT
  5
C34
  8
LAYER0014
 62
     4
 10
2658.0
 20
240.0
 30
0.0
 40
45.0
  1
品　　名
 41
0.7164179104477614
 72
     5
 11
2802.0
 21
240.0
 31
0.0
  0
TEXT
  5
C35
  8
LAYER0014
 62
     4
 10
2983.0
 20
240.0
 30
0.0
 40
45.0
  1
品　　番
 41
0.7058823529411765
 72
     5
 11
3127.0
 21
240.0
 31
0.0
  0
TEXT
  5
C36
  8
0
 62
     4
 10
3748.5
 20
240.0
 30
0.0
 40
45.0
  1
参考重量（ｋｇ）
 41
0.7272727272727271
 72
     5
 11
4036.5
 21
240.0
 31
0.0
  0
TEXT
  5
C37
  8
0
 62
     4
 10
3820.5
 20
165.0
 30
0.0
 40
45.0
  1
　８．４
 41
0.7272727272727342
 72
     5
 11
3964.5000000000018
 21
165.0
 31
0.0
  0
TEXT
  5
C38
  8
0
 62
     4
 10
3330.5
 20
240.0
 30
0.0
 40
45.0
  1
呼称寸法　（ｍｍ）
 41
0.7200000000000003
 72
     5
 11
3654.5
 21
240.0
 31
0.0
  0
TEXT
  5
C39
  8
0
 62
     4
 10
2607.4625359649071
 20
165.0
 30
0.0
 40
45.0
  1
支　柱（ 杭 ）
 41
0.7368421052631581
 72
     5
 11
2859.4625359649071
 21
165.0
 31
0.0
  0
TEXT
  5
C3A
  8
0
 62
     4
 10
2893.0
 20
165.0
 30
0.0
 40
45.0
  1
ＰＷＲＫ１０１２Ｈ２
 41
0.6206896551724139
 72
     5
 11
3217.0
 21
165.0
 31
0.0
  0
TEXT
  5
C3B
  8
LAYER0003
 62
     4
 10
3300.5
 20
165.0
 30
0.0
 40
45.0
  1
\U+03C6１００\U+00D7１２００
 41
0.6967741935483871
 72
     5
 11
3624.5
 21
165.0
 31
0.0
  0
TEXT
  5
C3C
  8
0
 62
     3
 10
2704.3572684069659
 20
30.0
 30
0.0
 40
90.0
  1
プラウッド　ロープ柵二段　（ＰＷＲＫ１０１２Ｈ２）
 41
0.4757196610707057
 72
     5
 11
3954.548537700779
 21
30.0
 31
0.0
  0
TEXT
  5
C3D
  8
0
 62
     3
 10
3489.0
 20
320.0
 30
0.0
 40
60.0
  1
（注：ロープは別）
 41
0.7200000000000002
 72
     5
 11
3921.0
 21
320.0
 31
0.0
  0
TEXT
  5
DFF
  8
LAYER0002
 62
     4
 10
372.2911044267189
 20
25.31581278938916
 30
0.0
 40
44.448979549788007
  1
●寸法・重量に関しては、全て標準値です。
 41
0.7323647552057732
 72
     5
 11
1125.347405187588
 21
25.31581278938916
 31
0.0
  0
TEXT
  5
E00
  8
LAYER0002
 62
     4
 10
372.3722967576673
 20
94.985649559939233
 30
0.0
 40
44.448979549788007
  1
●擬木仕様　外観：クヌギ模様　　色：ダークブラウン
 41
0.740840920980038
 72
     5
 11
1349.2844441642051
 21
94.985649559939233
 31
0.0
  0
TEXT
  5
E01
  8
LAYER0002
 62
     4
 10
371.34585496886439
 20
164.58021817088309
 30
0.0
 40
44.448979549788007
  1
●賠償責任保険加入品（ＰＬ保険）
 41
0.7607023207088205
 72
     5
 11
993.49478586745761
 21
164.58021817088309
 31
0.0
  0
TEXT
  5
E02
  8
LAYER0002
 62
     4
 10
372.1550792860894
 20
234.22617243637521
 30
0.0
 40
44.448979549788007
  1
●樹脂部は再生プラスチック100％（エコマーク認定品）
 41
0.7266624093017831
 72
     5
 11
1351.90362392928
 21
234.22617243637521
 31
0.0
  0
LINE
  5
E03
  8
0
  6
CONTINUOUS
 10
0.0000024406826924
 20
300.00000000000068
 30
0.0
 11
2580.0
 21
300.0
 31
0.0
  0
TEXT
  5
E04
  8
LAYER0002
 62
     4
 10
28.603810454007998
 20
234.22617243637521
 30
0.0
 40
44.448979549788007
  1
《特記仕様》
 41
0.8654848667936059
 72
     5
 11
285.06993808574123
 21
234.22617243637521
 31
0.0
  0
ENDSEC
  0
EOF
