  0
SECTION
  2
HEADER
  9
$ACADVER
  1
AC1009
  9
$INSBASE
 10
0.0
 20
0.0
 30
0.0
  9
$EXTMIN
 10
0.0
 20
0.0
 30
0.0
  9
$EXTMAX
 10
4080.0
 20
2700.0
 30
0.0
  9
$LIMMIN
 10
-2216.6999999999998
 20
-1610.425
  9
$LIMMAX
 10
2291.6999999999998
 20
1450.425
  9
$ORTHOMODE
 70
     0
  9
$REGENMODE
 70
     1
  9
$FILLMODE
 70
     1
  9
$QTEXTMODE
 70
     0
  9
$MIRRTEXT
 70
     1
  9
$DRAGMODE
 70
     2
  9
$LTSCALE
 40
1.0
  9
$OSMODE
 70
    37
  9
$ATTMODE
 70
     1
  9
$TEXTSIZE
 40
45.0
  9
$TRACEWID
 40
0.05
  9
$TEXTSTYLE
  7
STANDARD
  9
$CLAYER
  8
0
  9
$CELTYPE
  6
CONTINUOUS
  9
$CECOLOR
 62
   256
  9
$DIMSCALE
 40
1.0
  9
$DIMASZ
 40
0.18
  9
$DIMEXO
 40
0.0625
  9
$DIMDLI
 40
0.38
  9
$DIMRND
 40
0.0
  9
$DIMDLE
 40
0.0
  9
$DIMEXE
 40
0.18
  9
$DIMTP
 40
0.0
  9
$DIMTM
 40
0.0
  9
$DIMTXT
 40
0.18
  9
$DIMCEN
 40
0.09
  9
$DIMTSZ
 40
0.0
  9
$DIMTOL
 70
     0
  9
$DIMLIM
 70
     0
  9
$DIMTIH
 70
     1
  9
$DIMTOH
 70
     1
  9
$DIMSE1
 70
     0
  9
$DIMSE2
 70
     0
  9
$DIMTAD
 70
     0
  9
$DIMZIN
 70
     0
  9
$DIMBLK
  1

  9
$DIMASO
 70
     1
  9
$DIMSHO
 70
     1
  9
$DIMPOST
  1

  9
$DIMAPOST
  1

  9
$DIMALT
 70
     0
  9
$DIMALTD
 70
     2
  9
$DIMALTF
 40
25.399999999999999
  9
$DIMLFAC
 40
1.0
  9
$DIMTOFL
 70
     0
  9
$DIMTVP
 40
0.0
  9
$DIMTIX
 70
     0
  9
$DIMSOXD
 70
     0
  9
$DIMSAH
 70
     0
  9
$DIMBLK1
  1

  9
$DIMBLK2
  1

  9
$DIMSTYLE
  2
STANDARD
  9
$DIMCLRD
 70
     0
  9
$DIMCLRE
 70
     0
  9
$DIMCLRT
 70
     0
  9
$DIMTFAC
 40
1.0
  9
$DIMGAP
 40
0.09
  9
$LUNITS
 70
     2
  9
$LUPREC
 70
     4
  9
$SKETCHINC
 40
0.1
  9
$FILLETRAD
 40
0.0
  9
$AUNITS
 70
     0
  9
$AUPREC
 70
     0
  9
$MENU
  1
acad
  9
$ELEVATION
 40
0.0
  9
$PELEVATION
 40
0.0
  9
$THICKNESS
 40
0.0
  9
$LIMCHECK
 70
     0
  9
$BLIPMODE
 70
     0
  9
$CHAMFERA
 40
0.0
  9
$CHAMFERB
 40
0.0
  9
$SKPOLY
 70
     0
  9
$TDCREATE
 40
2305824.1747859032
  9
$TDUPDATE
 40
2457770.6394104171
  9
$TDINDWG
 40
0.0132604282
  9
$TDUSRTIMER
 40
0.0132604051
  9
$USRTIMER
 70
     1
  9
$ANGBASE
 50
0.0
  9
$ANGDIR
 70
     0
  9
$PDMODE
 70
     0
  9
$PDSIZE
 40
1.0
  9
$PLINEWID
 40
0.0
  9
$COORDS
 70
     1
  9
$SPLFRAME
 70
     0
  9
$SPLINETYPE
 70
     6
  9
$SPLINESEGS
 70
     8
  9
$ATTDIA
 70
     1
  9
$ATTREQ
 70
     1
  9
$HANDLING
 70
     1
  9
$HANDSEED
  5
584
  9
$SURFTAB1
 70
     6
  9
$SURFTAB2
 70
     6
  9
$SURFTYPE
 70
     6
  9
$SURFU
 70
     6
  9
$SURFV
 70
     6
  9
$UCSNAME
  2

  9
$UCSORG
 10
0.0
 20
0.0
 30
0.0
  9
$UCSXDIR
 10
1.0
 20
0.0
 30
0.0
  9
$UCSYDIR
 10
0.0
 20
1.0
 30
0.0
  9
$PUCSNAME
  2

  9
$PUCSORG
 10
0.0
 20
0.0
 30
0.0
  9
$PUCSXDIR
 10
1.0
 20
0.0
 30
0.0
  9
$PUCSYDIR
 10
0.0
 20
1.0
 30
0.0
  9
$USERI1
 70
     0
  9
$USERI2
 70
     0
  9
$USERI3
 70
     0
  9
$USERI4
 70
     0
  9
$USERI5
 70
     0
  9
$USERR1
 40
0.0
  9
$USERR2
 40
0.0
  9
$USERR3
 40
0.0
  9
$USERR4
 40
0.0
  9
$USERR5
 40
0.0
  9
$WORLDVIEW
 70
     1
  9
$SHADEDGE
 70
     3
  9
$SHADEDIF
 70
    70
  9
$TILEMODE
 70
     1
  9
$MAXACTVP
 70
    16
  9
$PLIMCHECK
 70
     0
  9
$PEXTMIN
 10
1.0000000000000000E+020
 20
1.0000000000000000E+020
 30
1.0000000000000000E+020
  9
$PEXTMAX
 10
-1.0000000000000000E+020
 20
-1.0000000000000000E+020
 30
-1.0000000000000000E+020
  9
$PLIMMIN
 10
0.0
 20
0.0
  9
$PLIMMAX
 10
12.0
 20
9.0
  9
$UNITMODE
 70
     0
  9
$VISRETAIN
 70
     0
  9
$PLINEGEN
 70
     1
  9
$PSLTSCALE
 70
     0
  0
ENDSEC
  0
SECTION
  2
TABLES
  0
TABLE
  2
VPORT
 70
     1
  0
VPORT
  2
*ACTIVE
 70
     0
 10
0.0
 20
0.0
 11
1.0
 21
1.0
 12
3384.7194699674742
 22
1606.4464939735831
 13
0.0
 23
0.0
 14
1.0
 24
1.0
 15
0.0
 25
0.0
 16
0.0
 26
0.0
 36
1.0
 17
0.0
 27
0.0
 37
0.0
 40
3870.6865713308821
 41
2.3741851368970011
 42
50.0
 43
0.0
 44
0.0
 50
0.0
 51
0.0
 71
     0
 72
   100
 73
     1
 74
     1
 75
     0
 76
     0
 77
     0
 78
     0
  0
ENDTAB
  0
TABLE
  2
LTYPE
 70
     2
  0
LTYPE
  2
CONTINUOUS
 70
     0
  3
Solid line
 72
    65
 73
     0
 40
0.0
  0
LTYPE
  2
DASHED
 70
     0
  3
CADPAC LINETYPE
 72
    65
 73
     2
 40
133.65000000000001
 49
89.09999999999998
 49
-44.549999999999997
  0
ENDTAB
  0
TABLE
  2
LAYER
 70
     6
  0
LAYER
  2
0
 70
     0
 62
     7
  6
CONTINUOUS
  0
LAYER
  2
LAYER0001
 70
     0
 62
     7
  6
CONTINUOUS
  0
LAYER
  2
LAYER0002
 70
     0
 62
     7
  6
CONTINUOUS
  0
LAYER
  2
LAYER0003
 70
     0
 62
     7
  6
CONTINUOUS
  0
LAYER
  2
LAYER0004
 70
     0
 62
     7
  6
CONTINUOUS
  0
LAYER
  2
LAYER0014
 70
     0
 62
     7
  6
CONTINUOUS
  0
ENDTAB
  0
TABLE
  2
STYLE
 70
     2
  0
STYLE
  2
STANDARD
 70
     0
 40
0.0
 41
0.8
 50
0.0
 71
     0
 42
45.0
  3
txt.shx
  4
bigfont.shx
  0
STYLE
  2
ANNOTATIVE
 70
     0
 40
0.0
 41
1.0
 50
0.0
 71
     0
 42
0.2
  3
txt
  4

  0
ENDTAB
  0
TABLE
  2
VIEW
 70
     1
  0
VIEW
  2
QQQQ
 70
     0
 40
3060.8499999999999
 10
37.5
 20
-80.0
 41
4508.3999999999987
 11
0.0
 21
0.0
 31
1.0
 12
100.0
 22
100.0
 32
0.0
 42
50.0
 43
0.0
 44
0.0
 50
0.0
 71
     0
  0
ENDTAB
  0
TABLE
  2
UCS
 70
     0
  0
ENDTAB
  0
TABLE
  2
APPID
 70
     5
  0
APPID
  2
ACAD
 70
     0
  0
APPID
  2
ACADANNOTATIVE
 70
     0
  0
APPID
  2
ACAD_EXEMPT_FROM_CAD_STANDARDS
 70
     0
  0
APPID
  2
ACAD_NAV_VCDISPLAY
 70
     0
  0
APPID
  2
ACAD_MLEADERVER
 70
     0
  0
ENDTAB
  0
TABLE
  2
DIMSTYLE
 70
     2
  0
DIMSTYLE
  2
STANDARD
 70
     0
  3

  4

  5

  6

  7

 40
1.0
 41
0.18
 42
0.0625
 43
0.38
 44
0.18
 45
0.0
 46
0.0
 47
0.0
 48
0.0
140
0.18
141
0.09
142
0.0
143
25.399999999999999
144
1.0
145
0.0
146
1.0
147
0.09
 71
     0
 72
     0
 73
     1
 74
     1
 75
     0
 76
     0
 77
     0
 78
     0
170
     0
171
     2
172
     0
173
     0
174
     0
175
     0
176
     0
177
     0
178
     0
  0
DIMSTYLE
  2
ANNOTATIVE
 70
     0
  3

  4

  5

  6

  7

 40
1.0
 41
0.18
 42
0.0625
 43
0.38
 44
0.18
 45
0.0
 46
0.0
 47
0.0
 48
0.0
140
0.18
141
0.09
142
0.0
143
25.399999999999999
144
1.0
145
0.0
146
1.0
147
0.09
 71
     0
 72
     0
 73
     1
 74
     1
 75
     0
 76
     0
 77
     0
 78
     0
170
     0
171
     2
172
     0
173
     0
174
     0
175
     0
176
     0
177
     0
178
     0
  0
ENDTAB
  0
ENDSEC
  0
SECTION
  2
BLOCKS
  0
BLOCK
  8
0
  2
$MODEL_SPACE
 70
     0
 10
0.0
 20
0.0
 30
0.0
  3
$MODEL_SPACE
  1

  0
ENDBLK
  5
50F
  8
0
  0
BLOCK
 67
     1
  8
0
  2
$PAPER_SPACE
 70
     0
 10
0.0
 20
0.0
 30
0.0
  3
$PAPER_SPACE
  1

  0
ENDBLK
  5
50B
 67
     1
  8
0
  0
BLOCK
  8
0
  2
_OPEN30
 70
     0
 10
0.0
 20
0.0
 30
0.0
  3
_OPEN30
  1

  0
LINE
  5
43
  8
LAYER0002
  6
CONTINUOUS
 62
     0
 10
0.0
 20
0.0
 30
0.0
 11
-0.9659258299999999
 21
0.25881905
 31
0.0
  0
LINE
  5
44
  8
LAYER0002
  6
CONTINUOUS
 62
     0
 10
0.0
 20
0.0
 30
0.0
 11
-0.9659258299999999
 21
-0.25881905
 31
0.0
  0
ENDBLK
  5
45
  8
0
  0
BLOCK
  8
0
  2
GROUP_1
 70
     0
 10
0.0
 20
0.0
 30
0.0
  3
GROUP_1
  1

  0
LINE
  5
47
  8
LAYER0004
  6
CONTINUOUS
 62
     2
 10
-794.98470419
 20
-828.69045492999999
 30
0.0
 11
-789.55086358999984
 21
-823.82859755000004
 31
0.0
  0
LINE
  5
48
  8
LAYER0004
  6
CONTINUOUS
 62
     2
 10
-774.98451168999975
 20
-828.69045492999999
 30
0.0
 11
-769.55067109000004
 21
-823.82859755000004
 31
0.0
  0
LINE
  5
49
  8
LAYER0004
  6
CONTINUOUS
 62
     2
 10
-754.98431918999984
 20
-828.69045492999999
 30
0.0
 11
-749.55047859000001
 21
-823.82859755000004
 31
0.0
  0
LINE
  5
4A
  8
LAYER0004
  6
CONTINUOUS
 62
     2
 10
-794.98470419
 20
-853.69064743000001
 30
0.0
 11
-789.55086358999984
 21
-848.82879004999972
 31
0.0
  0
LINE
  5
4B
  8
LAYER0004
  6
CONTINUOUS
 62
     2
 10
-774.98451168999975
 20
-853.69064743000001
 30
0.0
 11
-769.55067109000004
 21
-848.82879004999972
 31
0.0
  0
LINE
  5
4C
  8
LAYER0004
  6
CONTINUOUS
 62
     2
 10
-754.98431918999984
 20
-853.69064743000001
 30
0.0
 11
-749.55047859000001
 21
-848.82879004999972
 31
0.0
  0
LINE
  5
4D
  8
LAYER0004
  6
CONTINUOUS
 62
     2
 10
-797.98761609999985
 20
-837.84218645999988
 30
0.0
 11
-794.98470419
 21
-828.69045492999999
 31
0.0
  0
LINE
  5
4E
  8
LAYER0004
  6
CONTINUOUS
 62
     2
 10
-777.98742360000006
 20
-837.84218645999988
 30
0.0
 11
-774.98451168999975
 21
-828.69045492999999
 31
0.0
  0
LINE
  5
4F
  8
LAYER0004
  6
CONTINUOUS
 62
     2
 10
-757.98723110000003
 20
-837.84218645999988
 30
0.0
 11
-754.98431918999984
 21
-828.69045492999999
 31
0.0
  0
LINE
  5
50
  8
LAYER0004
  6
CONTINUOUS
 62
     2
 10
-797.98761609999985
 20
-862.84237896000013
 30
0.0
 11
-794.98470419
 21
-853.69064743000001
 31
0.0
  0
LINE
  5
51
  8
LAYER0004
  6
CONTINUOUS
 62
     2
 10
-777.98742360000006
 20
-862.84237896000013
 30
0.0
 11
-774.98451168999975
 21
-853.69064743000001
 31
0.0
  0
LINE
  5
52
  8
LAYER0004
  6
CONTINUOUS
 62
     2
 10
-757.98723110000003
 20
-862.84237896000013
 30
0.0
 11
-754.98431918999984
 21
-853.69064743000001
 31
0.0
  0
LINE
  5
53
  8
LAYER0004
  6
CONTINUOUS
 62
     2
 10
-797.98761609999985
 20
-837.84218645999988
 30
0.0
 11
-796.55765804999965
 21
-844.41999350000003
 31
0.0
  0
LINE
  5
54
  8
LAYER0004
  6
CONTINUOUS
 62
     2
 10
-777.98742360000006
 20
-837.84218645999988
 30
0.0
 11
-776.55746554999985
 21
-844.41999350000003
 31
0.0
  0
LINE
  5
55
  8
LAYER0004
  6
CONTINUOUS
 62
     2
 10
-757.98723110000003
 20
-837.84218645999988
 30
0.0
 11
-756.55727305000005
 21
-844.41999350000003
 31
0.0
  0
LINE
  5
56
  8
LAYER0004
  6
CONTINUOUS
 62
     2
 10
-797.98761609999985
 20
-862.84237896000013
 30
0.0
 11
-796.55765804999965
 21
-869.42018599999972
 31
0.0
  0
LINE
  5
57
  8
LAYER0004
  6
CONTINUOUS
 62
     2
 10
-777.98742360000006
 20
-862.84237896000013
 30
0.0
 11
-776.55746554999985
 21
-869.42018599999972
 31
0.0
  0
LINE
  5
58
  8
LAYER0004
  6
CONTINUOUS
 62
     2
 10
-757.98723110000003
 20
-862.84237896000013
 30
0.0
 11
-756.55727305000005
 21
-869.42018599999972
 31
0.0
  0
LINE
  5
59
  8
LAYER0004
  6
CONTINUOUS
 62
     2
 10
-796.55765804999965
 20
-844.41999350000003
 30
0.0
 11
-788.54989295999985
 21
-844.41999350000003
 31
0.0
  0
LINE
  5
5A
  8
LAYER0004
  6
CONTINUOUS
 62
     2
 10
-776.55746554999985
 20
-844.41999350000003
 30
0.0
 11
-768.54970046000005
 21
-844.41999350000003
 31
0.0
  0
LINE
  5
5B
  8
LAYER0004
  6
CONTINUOUS
 62
     2
 10
-756.55727305000005
 20
-844.41999350000003
 30
0.0
 11
-748.54950796000003
 21
-844.41999350000003
 31
0.0
  0
LINE
  5
5C
  8
LAYER0004
  6
CONTINUOUS
 62
     2
 10
-796.55765804999965
 20
-869.42018599999972
 30
0.0
 11
-788.54989295999985
 21
-869.42018599999972
 31
0.0
  0
LINE
  5
5D
  8
LAYER0004
  6
CONTINUOUS
 62
     2
 10
-776.55746554999985
 20
-869.42018599999972
 30
0.0
 11
-768.54970046000005
 21
-869.42018599999972
 31
0.0
  0
LINE
  5
5E
  8
LAYER0004
  6
CONTINUOUS
 62
     2
 10
-756.55727305000005
 20
-869.42018599999972
 30
0.0
 11
-748.54950796000003
 21
-869.42018599999972
 31
0.0
  0
LINE
  5
5F
  8
LAYER0004
  6
CONTINUOUS
 62
     2
 10
-788.54989295999985
 20
-844.41999350000003
 30
0.0
 11
-782.40107333000003
 21
-838.41416967999999
 31
0.0
  0
LINE
  5
60
  8
LAYER0004
  6
CONTINUOUS
 62
     2
 10
-768.54970046000005
 20
-844.41999350000003
 30
0.0
 11
-762.40088083000001
 21
-838.41416967999999
 31
0.0
  0
LINE
  5
61
  8
LAYER0004
  6
CONTINUOUS
 62
     2
 10
-748.54950796000003
 20
-844.41999350000003
 30
0.0
 11
-742.40068832999964
 21
-838.41416967999999
 31
0.0
  0
LINE
  5
62
  8
LAYER0004
  6
CONTINUOUS
 62
     2
 10
-788.54989295999985
 20
-869.42018599999972
 30
0.0
 11
-782.40107333000003
 21
-863.4143621799999
 31
0.0
  0
LINE
  5
63
  8
LAYER0004
  6
CONTINUOUS
 62
     2
 10
-768.54970046000005
 20
-869.42018599999972
 30
0.0
 11
-762.40088083000001
 21
-863.4143621799999
 31
0.0
  0
LINE
  5
64
  8
LAYER0004
  6
CONTINUOUS
 62
     2
 10
-748.54950796000003
 20
-869.42018599999972
 30
0.0
 11
-742.40068832999964
 21
-863.4143621799999
 31
0.0
  0
LINE
  5
65
  8
LAYER0004
  6
CONTINUOUS
 62
     2
 10
-782.40107333000003
 20
-838.41416967999999
 30
0.0
 11
-779.39816141999984
 21
-831.83636263999983
 31
0.0
  0
LINE
  5
66
  8
LAYER0004
  6
CONTINUOUS
 62
     2
 10
-762.40088083000001
 20
-838.41416967999999
 30
0.0
 11
-759.39796892000004
 21
-831.83636263999983
 31
0.0
  0
LINE
  5
67
  8
LAYER0004
  6
CONTINUOUS
 62
     2
 10
-742.40068832999964
 20
-838.41416967999999
 30
0.0
 11
-739.39777642000001
 21
-831.83636263999983
 31
0.0
  0
LINE
  5
68
  8
LAYER0004
  6
CONTINUOUS
 62
     2
 10
-782.40107333000003
 20
-863.4143621799999
 30
0.0
 11
-779.39816141999984
 21
-856.83655513999986
 31
0.0
  0
LINE
  5
69
  8
LAYER0004
  6
CONTINUOUS
 62
     2
 10
-762.40088083000001
 20
-863.4143621799999
 30
0.0
 11
-759.39796892000004
 21
-856.83655513999986
 31
0.0
  0
LINE
  5
6A
  8
LAYER0004
  6
CONTINUOUS
 62
     2
 10
-742.40068832999964
 20
-863.4143621799999
 30
0.0
 11
-739.39777642000001
 21
-856.83655513999986
 31
0.0
  0
LINE
  5
6B
  8
LAYER0004
  6
CONTINUOUS
 62
     2
 10
-779.39816141999984
 20
-831.83636263999983
 30
0.0
 11
-778.68318239999985
 21
-824.97256399000014
 31
0.0
  0
LINE
  5
6C
  8
LAYER0004
  6
CONTINUOUS
 62
     2
 10
-759.39796892000004
 20
-831.83636263999983
 30
0.0
 11
-758.68298990000005
 21
-824.97256399000014
 31
0.0
  0
LINE
  5
6D
  8
LAYER0004
  6
CONTINUOUS
 62
     2
 10
-739.39777642000001
 20
-831.83636263999983
 30
0.0
 11
-738.68279739999969
 21
-824.97256399000014
 31
0.0
  0
LINE
  5
6E
  8
LAYER0004
  6
CONTINUOUS
 62
     2
 10
-779.39816141999984
 20
-856.83655513999986
 30
0.0
 11
-778.68318239999985
 21
-849.97275649000005
 31
0.0
  0
LINE
  5
6F
  8
LAYER0004
  6
CONTINUOUS
 62
     2
 10
-759.39796892000004
 20
-856.83655513999986
 30
0.0
 11
-758.68298990000005
 21
-849.97275649000005
 31
0.0
  0
LINE
  5
70
  8
LAYER0004
  6
CONTINUOUS
 62
     2
 10
-739.39777642000001
 20
-856.83655513999986
 30
0.0
 11
-738.68279739999969
 21
-849.97275649000005
 31
0.0
  0
LINE
  5
71
  8
LAYER0004
  6
CONTINUOUS
 62
     2
 10
-783.11605236000003
 20
-820.82568563999985
 30
0.0
 11
-778.68318239999985
 21
-824.97256399000014
 31
0.0
  0
LINE
  5
72
  8
LAYER0004
  6
CONTINUOUS
 62
     2
 10
-763.11585985999989
 20
-820.82568563999985
 30
0.0
 11
-758.68298990000005
 21
-824.97256399000014
 31
0.0
  0
LINE
  5
73
  8
LAYER0004
  6
CONTINUOUS
 62
     2
 10
-743.11566735999975
 20
-820.82568563999985
 30
0.0
 11
-738.68279739999969
 21
-824.97256399000014
 31
0.0
  0
LINE
  5
74
  8
LAYER0004
  6
CONTINUOUS
 62
     2
 10
-783.11605236000003
 20
-845.82587813999987
 30
0.0
 11
-778.68318239999985
 21
-849.97275649000005
 31
0.0
  0
LINE
  5
75
  8
LAYER0004
  6
CONTINUOUS
 62
     2
 10
-763.11585985999989
 20
-845.82587813999987
 30
0.0
 11
-758.68298990000005
 21
-849.97275649000005
 31
0.0
  0
LINE
  5
76
  8
LAYER0004
  6
CONTINUOUS
 62
     2
 10
-743.11566735999975
 20
-845.82587813999987
 30
0.0
 11
-738.68279739999969
 21
-849.97275649000005
 31
0.0
  0
LINE
  5
77
  8
LAYER0004
  6
CONTINUOUS
 62
     2
 10
-789.55086358999984
 20
-823.82859755000004
 30
0.0
 11
-783.11605236000003
 21
-820.82568563999985
 31
0.0
  0
LINE
  5
78
  8
LAYER0004
  6
CONTINUOUS
 62
     2
 10
-769.55067109000004
 20
-823.82859755000004
 30
0.0
 11
-763.11585985999989
 21
-820.82568563999985
 31
0.0
  0
LINE
  5
79
  8
LAYER0004
  6
CONTINUOUS
 62
     2
 10
-749.55047859000001
 20
-823.82859755000004
 30
0.0
 11
-743.11566735999975
 21
-820.82568563999985
 31
0.0
  0
LINE
  5
7A
  8
LAYER0004
  6
CONTINUOUS
 62
     2
 10
-789.55086358999984
 20
-848.82879004999972
 30
0.0
 11
-783.11605236000003
 21
-845.82587813999987
 31
0.0
  0
LINE
  5
7B
  8
LAYER0004
  6
CONTINUOUS
 62
     2
 10
-769.55067109000004
 20
-848.82879004999972
 30
0.0
 11
-763.11585985999989
 21
-845.82587813999987
 31
0.0
  0
LINE
  5
7C
  8
LAYER0004
  6
CONTINUOUS
 62
     2
 10
-749.55047859000001
 20
-848.82879004999972
 30
0.0
 11
-743.11566735999975
 21
-845.82587813999987
 31
0.0
  0
ENDBLK
  5
7D
  8
0
  0
BLOCK
  8
0
  2
GROUP_2
 70
     0
 10
0.0
 20
0.0
 30
0.0
  3
GROUP_2
  1

  0
LINE
  5
7F
  8
LAYER0004
  6
CONTINUOUS
 62
     2
 10
-454.28952288999989
 20
-828.69045492999999
 30
0.0
 11
-448.85568229
 21
-823.82859755000004
 31
0.0
  0
LINE
  5
80
  8
LAYER0004
  6
CONTINUOUS
 62
     2
 10
-434.28933038999992
 20
-828.69045492999999
 30
0.0
 11
-428.85548978999998
 21
-823.82859755000004
 31
0.0
  0
LINE
  5
81
  8
LAYER0004
  6
CONTINUOUS
 62
     2
 10
-414.28913788999989
 20
-828.69045492999999
 30
0.0
 11
-408.85529729000001
 21
-823.82859755000004
 31
0.0
  0
LINE
  5
82
  8
LAYER0004
  6
CONTINUOUS
 62
     2
 10
-454.28952288999989
 20
-853.69064743000001
 30
0.0
 11
-448.85568229
 21
-848.82879004999972
 31
0.0
  0
LINE
  5
83
  8
LAYER0004
  6
CONTINUOUS
 62
     2
 10
-434.28933038999992
 20
-853.69064743000001
 30
0.0
 11
-428.85548978999998
 21
-848.82879004999972
 31
0.0
  0
LINE
  5
84
  8
LAYER0004
  6
CONTINUOUS
 62
     2
 10
-414.28913788999989
 20
-853.69064743000001
 30
0.0
 11
-408.85529729000001
 21
-848.82879004999972
 31
0.0
  0
LINE
  5
85
  8
LAYER0004
  6
CONTINUOUS
 62
     2
 10
-457.29243479999991
 20
-837.84218645999988
 30
0.0
 11
-454.28952288999989
 21
-828.69045492999999
 31
0.0
  0
LINE
  5
86
  8
LAYER0004
  6
CONTINUOUS
 62
     2
 10
-437.2922423
 20
-837.84218645999988
 30
0.0
 11
-434.28933038999992
 21
-828.69045492999999
 31
0.0
  0
LINE
  5
87
  8
LAYER0004
  6
CONTINUOUS
 62
     2
 10
-417.2920497999998
 20
-837.84218645999988
 30
0.0
 11
-414.28913788999989
 21
-828.69045492999999
 31
0.0
  0
LINE
  5
88
  8
LAYER0004
  6
CONTINUOUS
 62
     2
 10
-457.29243479999991
 20
-862.84237896000013
 30
0.0
 11
-454.28952288999989
 21
-853.69064743000001
 31
0.0
  0
LINE
  5
89
  8
LAYER0004
  6
CONTINUOUS
 62
     2
 10
-437.2922423
 20
-862.84237896000013
 30
0.0
 11
-434.28933038999992
 21
-853.69064743000001
 31
0.0
  0
LINE
  5
8A
  8
LAYER0004
  6
CONTINUOUS
 62
     2
 10
-417.2920497999998
 20
-862.84237896000013
 30
0.0
 11
-414.28913788999989
 21
-853.69064743000001
 31
0.0
  0
LINE
  5
8B
  8
LAYER0004
  6
CONTINUOUS
 62
     2
 10
-457.29243479999991
 20
-837.84218645999988
 30
0.0
 11
-455.86247674999993
 21
-844.41999350000003
 31
0.0
  0
LINE
  5
8C
  8
LAYER0004
  6
CONTINUOUS
 62
     2
 10
-437.2922423
 20
-837.84218645999988
 30
0.0
 11
-435.86228424999979
 21
-844.41999350000003
 31
0.0
  0
LINE
  5
8D
  8
LAYER0004
  6
CONTINUOUS
 62
     2
 10
-417.2920497999998
 20
-837.84218645999988
 30
0.0
 11
-415.86209174999999
 21
-844.41999350000003
 31
0.0
  0
LINE
  5
8E
  8
LAYER0004
  6
CONTINUOUS
 62
     2
 10
-457.29243479999991
 20
-862.84237896000013
 30
0.0
 11
-455.86247674999993
 21
-869.42018599999972
 31
0.0
  0
LINE
  5
8F
  8
LAYER0004
  6
CONTINUOUS
 62
     2
 10
-437.2922423
 20
-862.84237896000013
 30
0.0
 11
-435.86228424999979
 21
-869.42018599999972
 31
0.0
  0
LINE
  5
90
  8
LAYER0004
  6
CONTINUOUS
 62
     2
 10
-417.2920497999998
 20
-862.84237896000013
 30
0.0
 11
-415.86209174999999
 21
-869.42018599999972
 31
0.0
  0
LINE
  5
91
  8
LAYER0004
  6
CONTINUOUS
 62
     2
 10
-455.86247674999993
 20
-844.41999350000003
 30
0.0
 11
-447.85471166000002
 21
-844.41999350000003
 31
0.0
  0
LINE
  5
92
  8
LAYER0004
  6
CONTINUOUS
 62
     2
 10
-435.86228424999979
 20
-844.41999350000003
 30
0.0
 11
-427.85451916
 21
-844.41999350000003
 31
0.0
  0
LINE
  5
93
  8
LAYER0004
  6
CONTINUOUS
 62
     2
 10
-415.86209174999999
 20
-844.41999350000003
 30
0.0
 11
-407.85432666000003
 21
-844.41999350000003
 31
0.0
  0
LINE
  5
94
  8
LAYER0004
  6
CONTINUOUS
 62
     2
 10
-455.86247674999993
 20
-869.42018599999972
 30
0.0
 11
-447.85471166000002
 21
-869.42018599999972
 31
0.0
  0
LINE
  5
95
  8
LAYER0004
  6
CONTINUOUS
 62
     2
 10
-435.86228424999979
 20
-869.42018599999972
 30
0.0
 11
-427.85451916
 21
-869.42018599999972
 31
0.0
  0
LINE
  5
96
  8
LAYER0004
  6
CONTINUOUS
 62
     2
 10
-415.86209174999999
 20
-869.42018599999972
 30
0.0
 11
-407.85432666000003
 21
-869.42018599999972
 31
0.0
  0
LINE
  5
97
  8
LAYER0004
  6
CONTINUOUS
 62
     2
 10
-447.85471166000002
 20
-844.41999350000003
 30
0.0
 11
-441.70589202999992
 21
-838.41416967999999
 31
0.0
  0
LINE
  5
98
  8
LAYER0004
  6
CONTINUOUS
 62
     2
 10
-427.85451916
 20
-844.41999350000003
 30
0.0
 11
-421.70569953
 21
-838.41416967999999
 31
0.0
  0
LINE
  5
99
  8
LAYER0004
  6
CONTINUOUS
 62
     2
 10
-407.85432666000003
 20
-844.41999350000003
 30
0.0
 11
-401.70550702999992
 21
-838.41416967999999
 31
0.0
  0
LINE
  5
9A
  8
LAYER0004
  6
CONTINUOUS
 62
     2
 10
-447.85471166000002
 20
-869.42018599999972
 30
0.0
 11
-441.70589202999992
 21
-863.4143621799999
 31
0.0
  0
LINE
  5
9B
  8
LAYER0004
  6
CONTINUOUS
 62
     2
 10
-427.85451916
 20
-869.42018599999972
 30
0.0
 11
-421.70569953
 21
-863.4143621799999
 31
0.0
  0
LINE
  5
9C
  8
LAYER0004
  6
CONTINUOUS
 62
     2
 10
-407.85432666000003
 20
-869.42018599999972
 30
0.0
 11
-401.70550702999992
 21
-863.4143621799999
 31
0.0
  0
LINE
  5
9D
  8
LAYER0004
  6
CONTINUOUS
 62
     2
 10
-441.70589202999992
 20
-838.41416967999999
 30
0.0
 11
-438.70298013000001
 21
-831.83636263999983
 31
0.0
  0
LINE
  5
9E
  8
LAYER0004
  6
CONTINUOUS
 62
     2
 10
-421.70569953
 20
-838.41416967999999
 30
0.0
 11
-418.70278762999999
 21
-831.83636263999983
 31
0.0
  0
LINE
  5
9F
  8
LAYER0004
  6
CONTINUOUS
 62
     2
 10
-401.70550702999992
 20
-838.41416967999999
 30
0.0
 11
-398.70259513000002
 21
-831.83636263999983
 31
0.0
  0
LINE
  5
A0
  8
LAYER0004
  6
CONTINUOUS
 62
     2
 10
-441.70589202999992
 20
-863.4143621799999
 30
0.0
 11
-438.70298013000001
 21
-856.83655513999986
 31
0.0
  0
LINE
  5
A1
  8
LAYER0004
  6
CONTINUOUS
 62
     2
 10
-421.70569953
 20
-863.4143621799999
 30
0.0
 11
-418.70278762999999
 21
-856.83655513999986
 31
0.0
  0
LINE
  5
A2
  8
LAYER0004
  6
CONTINUOUS
 62
     2
 10
-401.70550702999992
 20
-863.4143621799999
 30
0.0
 11
-398.70259513000002
 21
-856.83655513999986
 31
0.0
  0
LINE
  5
A3
  8
LAYER0004
  6
CONTINUOUS
 62
     2
 10
-438.70298013000001
 20
-831.83636263999983
 30
0.0
 11
-437.98800110000002
 21
-824.97256399000014
 31
0.0
  0
LINE
  5
A4
  8
LAYER0004
  6
CONTINUOUS
 62
     2
 10
-418.70278762999999
 20
-831.83636263999983
 30
0.0
 11
-417.98780859999999
 21
-824.97256399000014
 31
0.0
  0
LINE
  5
A5
  8
LAYER0004
  6
CONTINUOUS
 62
     2
 10
-398.70259513000002
 20
-831.83636263999983
 30
0.0
 11
-397.98761610000003
 21
-824.97256399000014
 31
0.0
  0
LINE
  5
A6
  8
LAYER0004
  6
CONTINUOUS
 62
     2
 10
-438.70298013000001
 20
-856.83655513999986
 30
0.0
 11
-437.98800110000002
 21
-849.97275649000005
 31
0.0
  0
LINE
  5
A7
  8
LAYER0004
  6
CONTINUOUS
 62
     2
 10
-418.70278762999999
 20
-856.83655513999986
 30
0.0
 11
-417.98780859999999
 21
-849.97275649000005
 31
0.0
  0
LINE
  5
A8
  8
LAYER0004
  6
CONTINUOUS
 62
     2
 10
-398.70259513000002
 20
-856.83655513999986
 30
0.0
 11
-397.98761610000003
 21
-849.97275649000005
 31
0.0
  0
LINE
  5
A9
  8
LAYER0004
  6
CONTINUOUS
 62
     2
 10
-442.42087106000002
 20
-820.82568563999985
 30
0.0
 11
-437.98800110000002
 21
-824.97256399000014
 31
0.0
  0
LINE
  5
AA
  8
LAYER0004
  6
CONTINUOUS
 62
     2
 10
-422.42067855999989
 20
-820.82568563999985
 30
0.0
 11
-417.98780859999999
 21
-824.97256399000014
 31
0.0
  0
LINE
  5
AB
  8
LAYER0004
  6
CONTINUOUS
 62
     2
 10
-402.42048605999992
 20
-820.82568563999985
 30
0.0
 11
-397.98761610000003
 21
-824.97256399000014
 31
0.0
  0
LINE
  5
AC
  8
LAYER0004
  6
CONTINUOUS
 62
     2
 10
-442.42087106000002
 20
-845.82587813999987
 30
0.0
 11
-437.98800110000002
 21
-849.97275649000005
 31
0.0
  0
LINE
  5
AD
  8
LAYER0004
  6
CONTINUOUS
 62
     2
 10
-422.42067855999989
 20
-845.82587813999987
 30
0.0
 11
-417.98780859999999
 21
-849.97275649000005
 31
0.0
  0
LINE
  5
AE
  8
LAYER0004
  6
CONTINUOUS
 62
     2
 10
-402.42048605999992
 20
-845.82587813999987
 30
0.0
 11
-397.98761610000003
 21
-849.97275649000005
 31
0.0
  0
LINE
  5
AF
  8
LAYER0004
  6
CONTINUOUS
 62
     2
 10
-448.85568229
 20
-823.82859755000004
 30
0.0
 11
-442.42087106000002
 21
-820.82568563999985
 31
0.0
  0
LINE
  5
B0
  8
LAYER0004
  6
CONTINUOUS
 62
     2
 10
-428.85548978999998
 20
-823.82859755000004
 30
0.0
 11
-422.42067855999989
 21
-820.82568563999985
 31
0.0
  0
LINE
  5
B1
  8
LAYER0004
  6
CONTINUOUS
 62
     2
 10
-408.85529729000001
 20
-823.82859755000004
 30
0.0
 11
-402.42048605999992
 21
-820.82568563999985
 31
0.0
  0
LINE
  5
B2
  8
LAYER0004
  6
CONTINUOUS
 62
     2
 10
-448.85568229
 20
-848.82879004999972
 30
0.0
 11
-442.42087106000002
 21
-845.82587813999987
 31
0.0
  0
LINE
  5
B3
  8
LAYER0004
  6
CONTINUOUS
 62
     2
 10
-428.85548978999998
 20
-848.82879004999972
 30
0.0
 11
-422.42067855999989
 21
-845.82587813999987
 31
0.0
  0
LINE
  5
B4
  8
LAYER0004
  6
CONTINUOUS
 62
     2
 10
-408.85529729000001
 20
-848.82879004999972
 30
0.0
 11
-402.42048605999992
 21
-845.82587813999987
 31
0.0
  0
ENDBLK
  5
B5
  8
0
  0
ENDSEC
  0
SECTION
  2
ENTITIES
  0
ARC
  5
B6
  8
0
  6
CONTINUOUS
 62
     3
 10
2354.5123838999998
 20
2074.3808049499999
 30
0.0
 40
50.0
 50
15.54871668000332
 51
344.45128331999672
  0
ARC
  5
B7
  8
0
  6
CONTINUOUS
 62
     3
 10
2754.5123838999998
 20
2074.3808049499999
 30
0.0
 40
50.0
 50
195.54871668000331
 51
164.45128331999669
  0
ARC
  5
B8
  8
0
  6
CONTINUOUS
 62
     3
 10
2454.5123838999998
 20
2069.3808049499999
 30
0.0
 40
55.0
 50
24.61997732999475
 51
160.45191545000239
  0
ARC
  5
B9
  8
0
  6
CONTINUOUS
 62
     3
 10
2554.5123838999998
 20
2069.3808049499999
 30
0.0
 40
55.0
 50
24.61997732999475
 51
155.38002267000519
  0
ARC
  5
BA
  8
0
  6
CONTINUOUS
 62
     3
 10
2654.5123838999998
 20
2069.3808049499999
 30
0.0
 40
55.0
 50
19.548084549997611
 51
155.38002267000519
  0
ARC
  5
BB
  8
0
  6
CONTINUOUS
 62
     3
 10
2654.5123838999998
 20
2079.3808049499999
 30
0.0
 40
55.0
 50
204.61997732999481
 51
340.45191545000239
  0
ARC
  5
BC
  8
0
  6
CONTINUOUS
 62
     3
 10
2554.5123838999998
 20
2079.3808049499999
 30
0.0
 40
55.0
 50
204.61997732999481
 51
335.3800226700053
  0
ARC
  5
BD
  8
0
  6
CONTINUOUS
 62
     3
 10
2454.5123838999998
 20
2079.3808049499999
 30
0.0
 40
55.0
 50
199.5480845499975
 51
335.3800226700053
  0
LINE
  5
BE
  8
0
  6
CONTINUOUS
 62
     3
 10
2304.5123838999998
 20
1574.3808049500001
 30
0.0
 11
2304.5123838999998
 21
824.38080494999986
 31
0.0
  0
LINE
  5
BF
  8
0
  6
CONTINUOUS
 62
     3
 10
2304.5123838999998
 20
824.38080494999986
 30
0.0
 11
2804.5123838999998
 21
824.38080494999986
 31
0.0
  0
LINE
  5
C0
  8
0
  6
CONTINUOUS
 62
     3
 10
2804.5123838999998
 20
824.38080494999986
 30
0.0
 11
2804.5123838999998
 21
1574.3808049500001
 31
0.0
  0
LINE
  5
C1
  8
0
  6
CONTINUOUS
 62
     3
 10
2804.5123838999998
 20
1574.3808049500001
 30
0.0
 11
2304.5123838999998
 21
1574.3808049500001
 31
0.0
  0
LINE
  5
C2
  8
0
  6
CONTINUOUS
 62
     3
 10
2402.6825279599998
 20
1574.3808049500001
 30
0.0
 11
2402.6825279599998
 21
824.38080494999986
 31
0.0
  0
LINE
  5
C3
  8
0
  6
CONTINUOUS
 62
     3
 10
2504.5123838999998
 20
1574.3808049500001
 30
0.0
 11
2504.5123838999998
 21
824.38080494999986
 31
0.0
  0
LINE
  5
C4
  8
0
  6
CONTINUOUS
 62
     3
 10
2604.5123838999998
 20
1574.3808049500001
 30
0.0
 11
2604.5123838999998
 21
824.38080494999986
 31
0.0
  0
LINE
  5
C5
  8
0
  6
CONTINUOUS
 62
     3
 10
2706.3422398500002
 20
1574.3808049500001
 30
0.0
 11
2706.3422398500002
 21
824.38080494999986
 31
0.0
  0
LINE
  5
C6
  8
0
  6
CONTINUOUS
 62
     3
 10
3304.5123839000012
 20
1574.3808049500001
 30
0.0
 11
3404.5123839000012
 21
1574.3808049500001
 31
0.0
  0
LINE
  5
C7
  8
0
  6
CONTINUOUS
 62
     3
 10
3404.5123839000012
 20
1574.3808049500001
 30
0.0
 11
3404.5123839000012
 21
824.38080494999986
 31
0.0
  0
LINE
  5
C8
  8
0
  6
CONTINUOUS
 62
     3
 10
3404.5123839000012
 20
824.38080494999986
 30
0.0
 11
3304.5123839000012
 21
824.38080494999986
 31
0.0
  0
LINE
  5
C9
  8
0
  6
CONTINUOUS
 62
     3
 10
3304.5123839000012
 20
824.38080494999986
 30
0.0
 11
3304.5123839000012
 21
1574.3808049500001
 31
0.0
  0
LINE
  5
CA
  8
0
  6
CONTINUOUS
 62
     3
 10
3324.5123838999998
 20
824.38080494999986
 30
0.0
 11
3324.5123838999998
 21
1554.3808049500001
 31
0.0
  0
LINE
  5
CB
  8
0
  6
CONTINUOUS
 62
     3
 10
3324.5123838999998
 20
1554.3808049500001
 30
0.0
 11
3384.5123839000012
 21
1554.3808049500001
 31
0.0
  0
LINE
  5
CC
  8
0
  6
CONTINUOUS
 62
     3
 10
3384.5123839000012
 20
1554.3808049500001
 30
0.0
 11
3384.5123839000012
 21
824.38080494999986
 31
0.0
  0
LINE
  5
CD
  8
0
  6
CONTINUOUS
 62
     3
 10
1854.5123839
 20
1170.194278115061
 30
0.0
 11
1454.5123839
 21
1170.194278115061
 31
0.0
  0
LINE
  5
CE
  8
0
  6
CONTINUOUS
 62
     3
 10
1354.5123839
 20
1170.194278115061
 30
0.0
 11
804.51238390000015
 21
1170.194278115061
 31
0.0
  0
LINE
  5
CF
  8
0
  6
CONTINUOUS
 62
     3
 10
1354.5123839
 20
1570.194278115061
 30
0.0
 11
1454.5123839
 21
1570.194278115061
 31
0.0
  0
LINE
  5
D0
  8
0
  6
CONTINUOUS
 62
     3
 10
1454.5123839
 20
1570.194278115061
 30
0.0
 11
1454.5123839
 21
820.19427811506046
 31
0.0
  0
LINE
  5
D1
  8
0
  6
CONTINUOUS
 62
     3
 10
1604.5123839
 20
820.19427811506046
 30
0.0
 11
1204.5123839
 21
820.19427811506046
 31
0.0
  0
LINE
  5
D2
  8
0
  6
CONTINUOUS
 62
     3
 10
1354.5123839
 20
820.19427811506046
 30
0.0
 11
1354.5123839
 21
1570.194278115061
 31
0.0
  0
LINE
  5
D3
  8
0
  6
CONTINUOUS
 62
     3
 10
1354.5123839
 20
1070.1942781150599
 30
0.0
 11
1254.5123839
 21
1070.1942781150599
 31
0.0
  0
LINE
  5
D4
  8
0
  6
CONTINUOUS
 62
     3
 10
1254.5123839
 20
1070.1942781150599
 30
0.0
 11
1254.5123839
 21
820.19427811506046
 31
0.0
  0
LINE
  5
D5
  8
0
  6
CONTINUOUS
 62
     3
 10
1554.5123839
 20
820.19427811506046
 30
0.0
 11
1554.5123839
 21
1070.1942781150599
 31
0.0
  0
LINE
  5
D6
  8
0
  6
CONTINUOUS
 62
     3
 10
1554.5123839
 20
1070.1942781150599
 30
0.0
 11
1454.5123839
 21
1070.1942781150599
 31
0.0
  0
LINE
  5
D7
  8
0
  6
CONTINUOUS
 62
     3
 10
1604.5123839
 20
820.19427811506046
 30
0.0
 11
1604.5123839
 21
770.19427811506068
 31
0.0
  0
LINE
  5
D8
  8
0
  6
CONTINUOUS
 62
     3
 10
1604.5123839
 20
770.19427811506068
 30
0.0
 11
1204.5123839
 21
770.19427811506068
 31
0.0
  0
LINE
  5
D9
  8
0
  6
CONTINUOUS
 62
     3
 10
1204.5123839
 20
770.19427811506068
 30
0.0
 11
1204.5123839
 21
820.19427811506046
 31
0.0
  0
LINE
  5
DA
  8
0
  6
DASHED
 62
     3
 10
1604.5123839
 20
770.19427811506068
 30
0.0
 11
1804.5123839
 21
1170.194278115061
 31
0.0
  0
LINE
  5
DB
  8
0
  6
DASHED
 62
     3
 10
1204.5123839
 20
770.19427811506068
 30
0.0
 11
1004.5123839
 21
1170.194278115061
 31
0.0
  0
CIRCLE
  5
DC
  8
0
  6
CONTINUOUS
 62
     2
 10
2754.5123838999998
 20
2074.3808049499999
 30
0.0
 40
12.5
  0
CIRCLE
  5
DD
  8
0
  6
CONTINUOUS
 62
     2
 10
2754.5123838999998
 20
2074.3808049499999
 30
0.0
 40
25.0
  0
CIRCLE
  5
DE
  8
0
  6
CONTINUOUS
 62
     2
 10
2754.5123838999998
 20
2074.3808049499999
 30
0.0
 40
37.5
  0
CIRCLE
  5
DF
  8
0
  6
CONTINUOUS
 62
     2
 10
2654.5123838999998
 20
2074.3808049499999
 30
0.0
 40
12.5
  0
CIRCLE
  5
E0
  8
0
  6
CONTINUOUS
 62
     2
 10
2654.5123838999998
 20
2074.3808049499999
 30
0.0
 40
25.0
  0
CIRCLE
  5
E1
  8
0
  6
CONTINUOUS
 62
     2
 10
2654.5123838999998
 20
2074.3808049499999
 30
0.0
 40
37.5
  0
CIRCLE
  5
E2
  8
0
  6
CONTINUOUS
 62
     2
 10
2554.5123838999998
 20
2074.3808049499999
 30
0.0
 40
12.5
  0
CIRCLE
  5
E3
  8
0
  6
CONTINUOUS
 62
     2
 10
2554.5123838999998
 20
2074.3808049499999
 30
0.0
 40
25.0
  0
CIRCLE
  5
E4
  8
0
  6
CONTINUOUS
 62
     2
 10
2554.5123838999998
 20
2074.3808049499999
 30
0.0
 40
37.5
  0
CIRCLE
  5
E5
  8
0
  6
CONTINUOUS
 62
     2
 10
2454.5123838999998
 20
2074.3808049499999
 30
0.0
 40
12.5
  0
CIRCLE
  5
E6
  8
0
  6
CONTINUOUS
 62
     2
 10
2454.5123838999998
 20
2074.3808049499999
 30
0.0
 40
25.0
  0
CIRCLE
  5
E7
  8
0
  6
CONTINUOUS
 62
     2
 10
2454.5123838999998
 20
2074.3808049499999
 30
0.0
 40
37.5
  0
CIRCLE
  5
E8
  8
0
  6
CONTINUOUS
 62
     2
 10
2354.5123838999998
 20
2074.3808049499999
 30
0.0
 40
12.5
  0
CIRCLE
  5
E9
  8
0
  6
CONTINUOUS
 62
     2
 10
2354.5123838999998
 20
2074.3808049499999
 30
0.0
 40
25.0
  0
CIRCLE
  5
EA
  8
0
  6
CONTINUOUS
 62
     2
 10
2354.5123838999998
 20
2074.3808049499999
 30
0.0
 40
37.5
  0
LINE
  5
EB
  8
LAYER0001
  6
CONTINUOUS
 62
     2
 10
2754.5123838999998
 20
1574.3808049500001
 30
0.0
 11
2754.5123838999998
 21
1424.3808049500001
 31
0.0
  0
LINE
  5
EC
  8
LAYER0001
  6
CONTINUOUS
 62
     2
 10
2729.5123838999998
 20
1524.3808049500001
 30
0.0
 11
2729.5123838999998
 21
1374.3808049500001
 31
0.0
  0
LINE
  5
ED
  8
LAYER0001
  6
CONTINUOUS
 62
     2
 10
2792.0123838999998
 20
1574.3808049500001
 30
0.0
 11
2792.0123838999998
 21
1474.3808049500001
 31
0.0
  0
LINE
  5
EE
  8
LAYER0001
  6
CONTINUOUS
 62
     2
 10
2792.0123838999998
 20
1424.3808049500001
 30
0.0
 11
2792.0123838999998
 21
1274.3808049500001
 31
0.0
  0
LINE
  5
EF
  8
LAYER0001
  6
CONTINUOUS
 62
     2
 10
2779.5123838999998
 20
1574.3808049500001
 30
0.0
 11
2779.5123838999998
 21
1524.3808049500001
 31
0.0
  0
LINE
  5
F0
  8
LAYER0001
  6
CONTINUOUS
 62
     2
 10
2779.5123838999998
 20
1474.3808049500001
 30
0.0
 11
2779.5123838999998
 21
1324.3808049500001
 31
0.0
  0
LINE
  5
F1
  8
LAYER0001
  6
CONTINUOUS
 62
     2
 10
2717.0123838999998
 20
1574.3808049500001
 30
0.0
 11
2717.0123838999998
 21
1424.3808049500001
 31
0.0
  0
LINE
  5
F2
  8
LAYER0001
  6
CONTINUOUS
 62
     2
 10
2554.5123838999998
 20
1574.3808049500001
 30
0.0
 11
2554.5123838999998
 21
1424.3808049500001
 31
0.0
  0
LINE
  5
F3
  8
LAYER0001
  6
CONTINUOUS
 62
     2
 10
2529.5123838999998
 20
1524.3808049500001
 30
0.0
 11
2529.5123838999998
 21
1374.3808049500001
 31
0.0
  0
LINE
  5
F4
  8
LAYER0001
  6
CONTINUOUS
 62
     2
 10
2592.0123838999998
 20
1574.3808049500001
 30
0.0
 11
2592.0123838999998
 21
1474.3808049500001
 31
0.0
  0
LINE
  5
F5
  8
LAYER0001
  6
CONTINUOUS
 62
     2
 10
2592.0123838999998
 20
1424.3808049500001
 30
0.0
 11
2592.0123838999998
 21
1274.3808049500001
 31
0.0
  0
LINE
  5
F6
  8
LAYER0001
  6
CONTINUOUS
 62
     2
 10
2579.5123838999998
 20
1574.3808049500001
 30
0.0
 11
2579.5123838999998
 21
1524.3808049500001
 31
0.0
  0
LINE
  5
F7
  8
LAYER0001
  6
CONTINUOUS
 62
     2
 10
2579.5123838999998
 20
1474.3808049500001
 30
0.0
 11
2579.5123838999998
 21
1324.3808049500001
 31
0.0
  0
LINE
  5
F8
  8
LAYER0001
  6
CONTINUOUS
 62
     2
 10
2517.0123838999998
 20
1574.3808049500001
 30
0.0
 11
2517.0123838999998
 21
1424.3808049500001
 31
0.0
  0
LINE
  5
F9
  8
LAYER0001
  6
CONTINUOUS
 62
     2
 10
2655.4273118699998
 20
1574.3808049500001
 30
0.0
 11
2655.4273118699998
 21
1424.3808049500001
 31
0.0
  0
LINE
  5
FA
  8
LAYER0001
  6
CONTINUOUS
 62
     2
 10
2630.4273118700012
 20
1524.3808049500001
 30
0.0
 11
2630.4273118700012
 21
1374.3808049500001
 31
0.0
  0
LINE
  5
FB
  8
LAYER0001
  6
CONTINUOUS
 62
     2
 10
2692.9273118700012
 20
1574.3808049500001
 30
0.0
 11
2692.9273118700012
 21
1474.3808049500001
 31
0.0
  0
LINE
  5
FC
  8
LAYER0001
  6
CONTINUOUS
 62
     2
 10
2692.9273118700012
 20
1424.3808049500001
 30
0.0
 11
2692.9273118700012
 21
1274.3808049500001
 31
0.0
  0
LINE
  5
FD
  8
LAYER0001
  6
CONTINUOUS
 62
     2
 10
2680.4273118699998
 20
1574.3808049500001
 30
0.0
 11
2680.4273118699998
 21
1524.3808049500001
 31
0.0
  0
LINE
  5
FE
  8
LAYER0001
  6
CONTINUOUS
 62
     2
 10
2680.4273118699998
 20
1474.3808049500001
 30
0.0
 11
2680.4273118699998
 21
1324.3808049500001
 31
0.0
  0
LINE
  5
FF
  8
LAYER0001
  6
CONTINUOUS
 62
     2
 10
2617.9273118699998
 20
1574.3808049500001
 30
0.0
 11
2617.9273118699998
 21
1424.3808049500001
 31
0.0
  0
LINE
  5
100
  8
LAYER0001
  6
CONTINUOUS
 62
     2
 10
2453.5974559299998
 20
1574.3808049500001
 30
0.0
 11
2453.5974559299998
 21
1424.3808049500001
 31
0.0
  0
LINE
  5
101
  8
LAYER0001
  6
CONTINUOUS
 62
     2
 10
2428.5974559299998
 20
1524.3808049500001
 30
0.0
 11
2428.5974559299998
 21
1374.3808049500001
 31
0.0
  0
LINE
  5
102
  8
LAYER0001
  6
CONTINUOUS
 62
     2
 10
2491.0974559299998
 20
1574.3808049500001
 30
0.0
 11
2491.0974559299998
 21
1474.3808049500001
 31
0.0
  0
LINE
  5
103
  8
LAYER0001
  6
CONTINUOUS
 62
     2
 10
2491.0974559299998
 20
1424.3808049500001
 30
0.0
 11
2491.0974559299998
 21
1274.3808049500001
 31
0.0
  0
LINE
  5
104
  8
LAYER0001
  6
CONTINUOUS
 62
     2
 10
2478.5974559299998
 20
1574.3808049500001
 30
0.0
 11
2478.5974559299998
 21
1524.3808049500001
 31
0.0
  0
LINE
  5
105
  8
LAYER0001
  6
CONTINUOUS
 62
     2
 10
2478.5974559299998
 20
1474.3808049500001
 30
0.0
 11
2478.5974559299998
 21
1324.3808049500001
 31
0.0
  0
LINE
  5
106
  8
LAYER0001
  6
CONTINUOUS
 62
     2
 10
2416.0974559299998
 20
1574.3808049500001
 30
0.0
 11
2416.0974559299998
 21
1424.3808049500001
 31
0.0
  0
LINE
  5
107
  8
LAYER0001
  6
CONTINUOUS
 62
     2
 10
3304.5123839000012
 20
1274.3808049500001
 30
0.0
 11
3324.5123838999998
 21
1294.3808049500001
 31
0.0
  0
LINE
  5
108
  8
LAYER0001
  6
CONTINUOUS
 62
     2
 10
3384.5123839000012
 20
1354.3808049500001
 30
0.0
 11
3404.5123839000012
 21
1374.3808049500001
 31
0.0
  0
LINE
  5
109
  8
LAYER0001
  6
CONTINUOUS
 62
     2
 10
3384.5123839000012
 20
1334.3808049500001
 30
0.0
 11
3404.5123839000012
 21
1354.3808049500001
 31
0.0
  0
LINE
  5
10A
  8
LAYER0001
  6
CONTINUOUS
 62
     2
 10
3384.5123839000012
 20
1314.3808049500001
 30
0.0
 11
3404.5123839000012
 21
1334.3808049500001
 31
0.0
  0
LINE
  5
10B
  8
LAYER0001
  6
CONTINUOUS
 62
     2
 10
3384.5123839000012
 20
1294.3808049500001
 30
0.0
 11
3404.5123839000012
 21
1314.3808049500001
 31
0.0
  0
LINE
  5
10C
  8
LAYER0001
  6
CONTINUOUS
 62
     2
 10
3384.5123839000012
 20
1274.3808049500001
 30
0.0
 11
3404.5123839000012
 21
1294.3808049500001
 31
0.0
  0
LINE
  5
10D
  8
LAYER0001
  6
CONTINUOUS
 62
     2
 10
3304.5123839000012
 20
1294.3808049500001
 30
0.0
 11
3324.5123838999998
 21
1314.3808049500001
 31
0.0
  0
LINE
  5
10E
  8
LAYER0001
  6
CONTINUOUS
 62
     2
 10
3384.5123839000012
 20
1374.3808049500001
 30
0.0
 11
3404.5123839000012
 21
1394.3808049500001
 31
0.0
  0
LINE
  5
10F
  8
LAYER0001
  6
CONTINUOUS
 62
     2
 10
3304.5123839000012
 20
1314.3808049500001
 30
0.0
 11
3324.5123838999998
 21
1334.3808049500001
 31
0.0
  0
LINE
  5
110
  8
LAYER0001
  6
CONTINUOUS
 62
     2
 10
3384.5123839000012
 20
1394.3808049500001
 30
0.0
 11
3404.5123839000012
 21
1414.3808049500001
 31
0.0
  0
LINE
  5
111
  8
LAYER0001
  6
CONTINUOUS
 62
     2
 10
3304.5123839000012
 20
1334.3808049500001
 30
0.0
 11
3324.5123838999998
 21
1354.3808049500001
 31
0.0
  0
LINE
  5
112
  8
LAYER0001
  6
CONTINUOUS
 62
     2
 10
3384.5123839000012
 20
1414.3808049500001
 30
0.0
 11
3404.5123839000012
 21
1434.3808049500001
 31
0.0
  0
LINE
  5
113
  8
LAYER0001
  6
CONTINUOUS
 62
     2
 10
3304.5123839000012
 20
1354.3808049500001
 30
0.0
 11
3324.5123838999998
 21
1374.3808049500001
 31
0.0
  0
LINE
  5
114
  8
LAYER0001
  6
CONTINUOUS
 62
     2
 10
3384.5123839000012
 20
1434.3808049500001
 30
0.0
 11
3404.5123839000012
 21
1454.3808049500001
 31
0.0
  0
LINE
  5
115
  8
LAYER0001
  6
CONTINUOUS
 62
     2
 10
3304.5123839000012
 20
1374.3808049500001
 30
0.0
 11
3324.5123838999998
 21
1394.3808049500001
 31
0.0
  0
LINE
  5
116
  8
LAYER0001
  6
CONTINUOUS
 62
     2
 10
3384.5123839000012
 20
1454.3808049500001
 30
0.0
 11
3404.5123839000012
 21
1474.3808049500001
 31
0.0
  0
LINE
  5
117
  8
LAYER0001
  6
CONTINUOUS
 62
     2
 10
3304.5123839000012
 20
1394.3808049500001
 30
0.0
 11
3324.5123838999998
 21
1414.3808049500001
 31
0.0
  0
LINE
  5
118
  8
LAYER0001
  6
CONTINUOUS
 62
     2
 10
3384.5123839000012
 20
1474.3808049500001
 30
0.0
 11
3404.5123839000012
 21
1494.3808049500001
 31
0.0
  0
LINE
  5
119
  8
LAYER0001
  6
CONTINUOUS
 62
     2
 10
3304.5123839000012
 20
1414.3808049500001
 30
0.0
 11
3324.5123838999998
 21
1434.3808049500001
 31
0.0
  0
LINE
  5
11A
  8
LAYER0001
  6
CONTINUOUS
 62
     2
 10
3384.5123839000012
 20
1494.3808049500001
 30
0.0
 11
3404.5123839000012
 21
1514.3808049500001
 31
0.0
  0
LINE
  5
11B
  8
LAYER0001
  6
CONTINUOUS
 62
     2
 10
3304.5123839000012
 20
1434.3808049500001
 30
0.0
 11
3324.5123838999998
 21
1454.3808049500001
 31
0.0
  0
LINE
  5
11C
  8
LAYER0001
  6
CONTINUOUS
 62
     2
 10
3384.5123839000012
 20
1514.3808049500001
 30
0.0
 11
3404.5123839000012
 21
1534.3808049500001
 31
0.0
  0
LINE
  5
11D
  8
LAYER0001
  6
CONTINUOUS
 62
     2
 10
3304.5123839000012
 20
1454.3808049500001
 30
0.0
 11
3324.5123838999998
 21
1474.3808049500001
 31
0.0
  0
LINE
  5
11E
  8
LAYER0001
  6
CONTINUOUS
 62
     2
 10
3384.5123839000012
 20
1534.3808049500001
 30
0.0
 11
3404.5123839000012
 21
1554.3808049500001
 31
0.0
  0
LINE
  5
11F
  8
LAYER0001
  6
CONTINUOUS
 62
     2
 10
3304.5123839000012
 20
1474.3808049500001
 30
0.0
 11
3324.5123838999998
 21
1494.3808049500001
 31
0.0
  0
LINE
  5
120
  8
LAYER0001
  6
CONTINUOUS
 62
     2
 10
3384.5123839000012
 20
1554.3808049500001
 30
0.0
 11
3404.5123839000012
 21
1574.3808049500001
 31
0.0
  0
LINE
  5
121
  8
LAYER0001
  6
CONTINUOUS
 62
     2
 10
3304.5123839000012
 20
1494.3808049500001
 30
0.0
 11
3324.5123838999998
 21
1514.3808049500001
 31
0.0
  0
LINE
  5
122
  8
LAYER0001
  6
CONTINUOUS
 62
     2
 10
3364.5123838999998
 20
1554.3808049500001
 30
0.0
 11
3384.5123839000012
 21
1574.3808049500001
 31
0.0
  0
LINE
  5
123
  8
LAYER0001
  6
CONTINUOUS
 62
     2
 10
3304.5123839000012
 20
1514.3808049500001
 30
0.0
 11
3324.5123838999998
 21
1534.3808049500001
 31
0.0
  0
LINE
  5
124
  8
LAYER0001
  6
CONTINUOUS
 62
     2
 10
3344.5123839000012
 20
1554.3808049500001
 30
0.0
 11
3364.5123838999998
 21
1574.3808049500001
 31
0.0
  0
LINE
  5
125
  8
LAYER0001
  6
CONTINUOUS
 62
     2
 10
3304.5123839000012
 20
1534.3808049500001
 30
0.0
 11
3344.5123839000012
 21
1574.3808049500001
 31
0.0
  0
LINE
  5
126
  8
LAYER0001
  6
CONTINUOUS
 62
     2
 10
3304.5123839000012
 20
1554.3808049500001
 30
0.0
 11
3324.5123838999998
 21
1574.3808049500001
 31
0.0
  0
LINE
  5
127
  8
LAYER0001
  6
CONTINUOUS
 62
     2
 10
2353.5974559299998
 20
1574.3808049500001
 30
0.0
 11
2353.5974559299998
 21
1424.3808049500001
 31
0.0
  0
LINE
  5
128
  8
LAYER0001
  6
CONTINUOUS
 62
     2
 10
2328.5974559299998
 20
1524.3808049500001
 30
0.0
 11
2328.5974559299998
 21
1374.3808049500001
 31
0.0
  0
LINE
  5
129
  8
LAYER0001
  6
CONTINUOUS
 62
     2
 10
2391.0974559299998
 20
1574.3808049500001
 30
0.0
 11
2391.0974559299998
 21
1474.3808049500001
 31
0.0
  0
LINE
  5
12A
  8
LAYER0001
  6
CONTINUOUS
 62
     2
 10
2391.0974559299998
 20
1424.3808049500001
 30
0.0
 11
2391.0974559299998
 21
1274.3808049500001
 31
0.0
  0
LINE
  5
12B
  8
LAYER0001
  6
CONTINUOUS
 62
     2
 10
2378.5974559299998
 20
1574.3808049500001
 30
0.0
 11
2378.5974559299998
 21
1524.3808049500001
 31
0.0
  0
LINE
  5
12C
  8
LAYER0001
  6
CONTINUOUS
 62
     2
 10
2378.5974559299998
 20
1474.3808049500001
 30
0.0
 11
2378.5974559299998
 21
1324.3808049500001
 31
0.0
  0
LINE
  5
12D
  8
LAYER0001
  6
CONTINUOUS
 62
     2
 10
2316.0974559299998
 20
1574.3808049500001
 30
0.0
 11
2316.0974559299998
 21
1424.3808049500001
 31
0.0
  0
LINE
  5
12E
  8
LAYER0001
  6
CONTINUOUS
 62
     2
 10
3304.5123839000012
 20
1114.3808049500001
 30
0.0
 11
3324.5123838999998
 21
1134.3808049500001
 31
0.0
  0
LINE
  5
12F
  8
LAYER0001
  6
CONTINUOUS
 62
     2
 10
3304.5123839000012
 20
1134.3808049500001
 30
0.0
 11
3324.5123838999998
 21
1154.3808049500001
 31
0.0
  0
LINE
  5
130
  8
LAYER0001
  6
CONTINUOUS
 62
     2
 10
3304.5123839000012
 20
1154.3808049500001
 30
0.0
 11
3324.5123838999998
 21
1174.3808049500001
 31
0.0
  0
LINE
  5
131
  8
LAYER0001
  6
CONTINUOUS
 62
     2
 10
3304.5123839000012
 20
1174.3808049500001
 30
0.0
 11
3324.5123838999998
 21
1194.3808049500001
 31
0.0
  0
LINE
  5
132
  8
LAYER0001
  6
CONTINUOUS
 62
     2
 10
3304.5123839000012
 20
1194.3808049500001
 30
0.0
 11
3324.5123838999998
 21
1214.3808049500001
 31
0.0
  0
LINE
  5
133
  8
LAYER0001
  6
CONTINUOUS
 62
     2
 10
3304.5123839000012
 20
1214.3808049500001
 30
0.0
 11
3324.5123838999998
 21
1234.3808049500001
 31
0.0
  0
LINE
  5
134
  8
LAYER0001
  6
CONTINUOUS
 62
     2
 10
3304.5123839000012
 20
1234.3808049500001
 30
0.0
 11
3324.5123838999998
 21
1254.3808049500001
 31
0.0
  0
LINE
  5
135
  8
LAYER0001
  6
CONTINUOUS
 62
     2
 10
3304.5123839000012
 20
1254.3808049500001
 30
0.0
 11
3324.5123838999998
 21
1274.3808049500001
 31
0.0
  0
LINE
  5
136
  8
LAYER0001
  6
CONTINUOUS
 62
     2
 10
3384.5123839000012
 20
1114.3808049500001
 30
0.0
 11
3404.5123839000012
 21
1134.3808049500001
 31
0.0
  0
LINE
  5
137
  8
LAYER0001
  6
CONTINUOUS
 62
     2
 10
3384.5123839000012
 20
1134.3808049500001
 30
0.0
 11
3404.5123839000012
 21
1154.3808049500001
 31
0.0
  0
LINE
  5
138
  8
LAYER0001
  6
CONTINUOUS
 62
     2
 10
3384.5123839000012
 20
1154.3808049500001
 30
0.0
 11
3404.5123839000012
 21
1174.3808049500001
 31
0.0
  0
LINE
  5
139
  8
LAYER0001
  6
CONTINUOUS
 62
     2
 10
3384.5123839000012
 20
1174.3808049500001
 30
0.0
 11
3404.5123839000012
 21
1194.3808049500001
 31
0.0
  0
LINE
  5
13A
  8
LAYER0001
  6
CONTINUOUS
 62
     2
 10
3384.5123839000012
 20
1194.3808049500001
 30
0.0
 11
3404.5123839000012
 21
1214.3808049500001
 31
0.0
  0
LINE
  5
13B
  8
LAYER0001
  6
CONTINUOUS
 62
     2
 10
3384.5123839000012
 20
1214.3808049500001
 30
0.0
 11
3404.5123839000012
 21
1234.3808049500001
 31
0.0
  0
LINE
  5
13C
  8
LAYER0001
  6
CONTINUOUS
 62
     2
 10
3384.5123839000012
 20
1234.3808049500001
 30
0.0
 11
3404.5123839000012
 21
1254.3808049500001
 31
0.0
  0
LINE
  5
13D
  8
LAYER0001
  6
CONTINUOUS
 62
     2
 10
3384.5123839000012
 20
1254.3808049500001
 30
0.0
 11
3404.5123839000012
 21
1274.3808049500001
 31
0.0
  0
LINE
  5
13E
  8
LAYER0001
  6
CONTINUOUS
 62
     2
 10
3304.5123839000012
 20
1074.3808049500001
 30
0.0
 11
3324.5123838999998
 21
1094.3808049500001
 31
0.0
  0
LINE
  5
13F
  8
LAYER0001
  6
CONTINUOUS
 62
     2
 10
3304.5123839000012
 20
1094.3808049500001
 30
0.0
 11
3324.5123838999998
 21
1114.3808049500001
 31
0.0
  0
LINE
  5
140
  8
LAYER0001
  6
CONTINUOUS
 62
     2
 10
3384.5123839000012
 20
1074.3808049500001
 30
0.0
 11
3404.5123839000012
 21
1094.3808049500001
 31
0.0
  0
LINE
  5
141
  8
LAYER0001
  6
CONTINUOUS
 62
     2
 10
3384.5123839000012
 20
1094.3808049500001
 30
0.0
 11
3404.5123839000012
 21
1114.3808049500001
 31
0.0
  0
LINE
  5
142
  8
LAYER0001
  6
CONTINUOUS
 62
     2
 10
2353.5974559299998
 20
1374.3808049500001
 30
0.0
 11
2353.5974559299998
 21
1224.3808049500001
 31
0.0
  0
LINE
  5
143
  8
LAYER0001
  6
CONTINUOUS
 62
     2
 10
2316.0974559299998
 20
1374.3808049500001
 30
0.0
 11
2316.0974559299998
 21
1224.3808049500001
 31
0.0
  0
LINE
  5
144
  8
LAYER0001
  6
CONTINUOUS
 62
     2
 10
2328.5974559299998
 20
1324.3808049500001
 30
0.0
 11
2328.5974559299998
 21
1174.3808049500001
 31
0.0
  0
LINE
  5
145
  8
LAYER0001
  6
CONTINUOUS
 62
     2
 10
2391.0974559299998
 20
1224.3808049500001
 30
0.0
 11
2391.0974559299998
 21
1074.3808049500001
 31
0.0
  0
LINE
  5
146
  8
LAYER0001
  6
CONTINUOUS
 62
     2
 10
2378.5974559299998
 20
1274.3808049500001
 30
0.0
 11
2378.5974559299998
 21
1124.3808049500001
 31
0.0
  0
LINE
  5
147
  8
LAYER0001
  6
CONTINUOUS
 62
     2
 10
2428.5974559299998
 20
1324.3808049500001
 30
0.0
 11
2428.5974559299998
 21
1174.3808049500001
 31
0.0
  0
LINE
  5
148
  8
LAYER0001
  6
CONTINUOUS
 62
     2
 10
2416.0974559299998
 20
1374.3808049500001
 30
0.0
 11
2416.0974559299998
 21
1224.3808049500001
 31
0.0
  0
LINE
  5
149
  8
LAYER0001
  6
CONTINUOUS
 62
     2
 10
2453.5974559299998
 20
1374.3808049500001
 30
0.0
 11
2453.5974559299998
 21
1224.3808049500001
 31
0.0
  0
LINE
  5
14A
  8
LAYER0001
  6
CONTINUOUS
 62
     2
 10
2478.5974559299998
 20
1274.3808049500001
 30
0.0
 11
2478.5974559299998
 21
1124.3808049500001
 31
0.0
  0
LINE
  5
14B
  8
LAYER0001
  6
CONTINUOUS
 62
     2
 10
2491.0974559299998
 20
1224.3808049500001
 30
0.0
 11
2491.0974559299998
 21
1074.3808049500001
 31
0.0
  0
LINE
  5
14C
  8
LAYER0001
  6
CONTINUOUS
 62
     2
 10
2592.0123838999998
 20
1224.3808049500001
 30
0.0
 11
2592.0123838999998
 21
1074.3808049500001
 31
0.0
  0
LINE
  5
14D
  8
LAYER0001
  6
CONTINUOUS
 62
     2
 10
2579.5123838999998
 20
1274.3808049500001
 30
0.0
 11
2579.5123838999998
 21
1124.3808049500001
 31
0.0
  0
LINE
  5
14E
  8
LAYER0001
  6
CONTINUOUS
 62
     2
 10
2554.5123838999998
 20
1374.3808049500001
 30
0.0
 11
2554.5123838999998
 21
1224.3808049500001
 31
0.0
  0
LINE
  5
14F
  8
LAYER0001
  6
CONTINUOUS
 62
     2
 10
2529.5123838999998
 20
1324.3808049500001
 30
0.0
 11
2529.5123838999998
 21
1174.3808049500001
 31
0.0
  0
LINE
  5
150
  8
LAYER0001
  6
CONTINUOUS
 62
     2
 10
2517.0123838999998
 20
1374.3808049500001
 30
0.0
 11
2517.0123838999998
 21
1224.3808049500001
 31
0.0
  0
LINE
  5
151
  8
LAYER0001
  6
CONTINUOUS
 62
     2
 10
2692.9273118700012
 20
1224.3808049500001
 30
0.0
 11
2692.9273118700012
 21
1074.3808049500001
 31
0.0
  0
LINE
  5
152
  8
LAYER0001
  6
CONTINUOUS
 62
     2
 10
2680.4273118699998
 20
1274.3808049500001
 30
0.0
 11
2680.4273118699998
 21
1124.3808049500001
 31
0.0
  0
LINE
  5
153
  8
LAYER0001
  6
CONTINUOUS
 62
     2
 10
2655.4273118699998
 20
1374.3808049500001
 30
0.0
 11
2655.4273118699998
 21
1224.3808049500001
 31
0.0
  0
LINE
  5
154
  8
LAYER0001
  6
CONTINUOUS
 62
     2
 10
2630.4273118700012
 20
1324.3808049500001
 30
0.0
 11
2630.4273118700012
 21
1174.3808049500001
 31
0.0
  0
LINE
  5
155
  8
LAYER0001
  6
CONTINUOUS
 62
     2
 10
2617.9273118699998
 20
1374.3808049500001
 30
0.0
 11
2617.9273118699998
 21
1224.3808049500001
 31
0.0
  0
LINE
  5
156
  8
LAYER0001
  6
CONTINUOUS
 62
     2
 10
2792.0123838999998
 20
1224.3808049500001
 30
0.0
 11
2792.0123838999998
 21
1074.3808049500001
 31
0.0
  0
LINE
  5
157
  8
LAYER0001
  6
CONTINUOUS
 62
     2
 10
2779.5123838999998
 20
1274.3808049500001
 30
0.0
 11
2779.5123838999998
 21
1124.3808049500001
 31
0.0
  0
LINE
  5
158
  8
LAYER0001
  6
CONTINUOUS
 62
     2
 10
2754.5123838999998
 20
1374.3808049500001
 30
0.0
 11
2754.5123838999998
 21
1224.3808049500001
 31
0.0
  0
LINE
  5
159
  8
LAYER0001
  6
CONTINUOUS
 62
     2
 10
2729.5123838999998
 20
1324.3808049500001
 30
0.0
 11
2729.5123838999998
 21
1174.3808049500001
 31
0.0
  0
LINE
  5
15A
  8
LAYER0001
  6
CONTINUOUS
 62
     2
 10
2717.0123838999998
 20
1374.3808049500001
 30
0.0
 11
2717.0123838999998
 21
1224.3808049500001
 31
0.0
  0
LINE
  5
15B
  8
LAYER0001
  6
CONTINUOUS
 62
     2
 10
3304.5123839000012
 20
934.38080494999986
 30
0.0
 11
3324.5123838999998
 21
954.38080494999986
 31
0.0
  0
LINE
  5
15C
  8
LAYER0001
  6
CONTINUOUS
 62
     2
 10
3304.5123839000012
 20
954.38080494999986
 30
0.0
 11
3324.5123838999998
 21
974.38080494999997
 31
0.0
  0
LINE
  5
15D
  8
LAYER0001
  6
CONTINUOUS
 62
     2
 10
3304.5123839000012
 20
974.38080494999997
 30
0.0
 11
3324.5123838999998
 21
994.38080494999986
 31
0.0
  0
LINE
  5
15E
  8
LAYER0001
  6
CONTINUOUS
 62
     2
 10
3304.5123839000012
 20
994.38080494999986
 30
0.0
 11
3324.5123838999998
 21
1014.38080495
 31
0.0
  0
LINE
  5
15F
  8
LAYER0001
  6
CONTINUOUS
 62
     2
 10
3304.5123839000012
 20
1014.38080495
 30
0.0
 11
3324.5123838999998
 21
1034.3808049500001
 31
0.0
  0
LINE
  5
160
  8
LAYER0001
  6
CONTINUOUS
 62
     2
 10
3304.5123839000012
 20
1034.3808049500001
 30
0.0
 11
3324.5123838999998
 21
1054.3808049500001
 31
0.0
  0
LINE
  5
161
  8
LAYER0001
  6
CONTINUOUS
 62
     2
 10
3304.5123839000012
 20
1054.3808049500001
 30
0.0
 11
3324.5123838999998
 21
1074.3808049500001
 31
0.0
  0
LINE
  5
162
  8
LAYER0001
  6
CONTINUOUS
 62
     2
 10
3304.5123839000012
 20
894.38080494999986
 30
0.0
 11
3324.5123838999998
 21
914.38080494999997
 31
0.0
  0
LINE
  5
163
  8
LAYER0001
  6
CONTINUOUS
 62
     2
 10
3304.5123839000012
 20
914.38080494999997
 30
0.0
 11
3324.5123838999998
 21
934.38080494999986
 31
0.0
  0
LINE
  5
164
  8
LAYER0001
  6
CONTINUOUS
 62
     2
 10
3384.5123839000012
 20
934.38080494999986
 30
0.0
 11
3404.5123839000012
 21
954.38080494999986
 31
0.0
  0
LINE
  5
165
  8
LAYER0001
  6
CONTINUOUS
 62
     2
 10
3384.5123839000012
 20
954.38080494999986
 30
0.0
 11
3404.5123839000012
 21
974.38080494999997
 31
0.0
  0
LINE
  5
166
  8
LAYER0001
  6
CONTINUOUS
 62
     2
 10
3384.5123839000012
 20
974.38080494999997
 30
0.0
 11
3404.5123839000012
 21
994.38080494999986
 31
0.0
  0
LINE
  5
167
  8
LAYER0001
  6
CONTINUOUS
 62
     2
 10
3384.5123839000012
 20
994.38080494999986
 30
0.0
 11
3404.5123839000012
 21
1014.38080495
 31
0.0
  0
LINE
  5
168
  8
LAYER0001
  6
CONTINUOUS
 62
     2
 10
3384.5123839000012
 20
1014.38080495
 30
0.0
 11
3404.5123839000012
 21
1034.3808049500001
 31
0.0
  0
LINE
  5
169
  8
LAYER0001
  6
CONTINUOUS
 62
     2
 10
3384.5123839000012
 20
1034.3808049500001
 30
0.0
 11
3404.5123839000012
 21
1054.3808049500001
 31
0.0
  0
LINE
  5
16A
  8
LAYER0001
  6
CONTINUOUS
 62
     2
 10
3384.5123839000012
 20
1054.3808049500001
 30
0.0
 11
3404.5123839000012
 21
1074.3808049500001
 31
0.0
  0
LINE
  5
16B
  8
LAYER0001
  6
CONTINUOUS
 62
     2
 10
3384.5123839000012
 20
894.38080494999986
 30
0.0
 11
3404.5123839000012
 21
914.38080494999997
 31
0.0
  0
LINE
  5
16C
  8
LAYER0001
  6
CONTINUOUS
 62
     2
 10
3384.5123839000012
 20
914.38080494999997
 30
0.0
 11
3404.5123839000012
 21
934.38080494999986
 31
0.0
  0
LINE
  5
16D
  8
LAYER0001
  6
CONTINUOUS
 62
     2
 10
3304.5123839000012
 20
874.38080494999986
 30
0.0
 11
3324.5123838999998
 21
894.38080494999986
 31
0.0
  0
LINE
  5
16E
  8
LAYER0001
  6
CONTINUOUS
 62
     2
 10
3304.5123839000012
 20
834.38080494999974
 30
0.0
 11
3324.5123838999998
 21
854.38080494999986
 31
0.0
  0
LINE
  5
16F
  8
LAYER0001
  6
CONTINUOUS
 62
     2
 10
3304.5123839000012
 20
854.38080494999986
 30
0.0
 11
3324.5123838999998
 21
874.38080494999986
 31
0.0
  0
LINE
  5
170
  8
LAYER0001
  6
CONTINUOUS
 62
     2
 10
3384.5123839000012
 20
874.38080494999986
 30
0.0
 11
3404.5123839000012
 21
894.38080494999986
 31
0.0
  0
LINE
  5
171
  8
LAYER0001
  6
CONTINUOUS
 62
     2
 10
3384.5123839000012
 20
834.38080494999974
 30
0.0
 11
3404.5123839000012
 21
854.38080494999986
 31
0.0
  0
LINE
  5
172
  8
LAYER0001
  6
CONTINUOUS
 62
     2
 10
3384.5123839000012
 20
854.38080494999986
 30
0.0
 11
3404.5123839000012
 21
874.38080494999986
 31
0.0
  0
LINE
  5
173
  8
LAYER0001
  6
CONTINUOUS
 62
     2
 10
3314.5123838999998
 20
824.38080494999986
 30
0.0
 11
3324.5123838999998
 21
834.38080494999974
 31
0.0
  0
LINE
  5
174
  8
LAYER0001
  6
CONTINUOUS
 62
     2
 10
3394.5123838999998
 20
824.38080494999986
 30
0.0
 11
3404.5123839000012
 21
834.38080494999974
 31
0.0
  0
LINE
  5
175
  8
LAYER0001
  6
CONTINUOUS
 62
     2
 10
2792.0123838999998
 20
1024.3808049500001
 30
0.0
 11
2792.0123838999998
 21
874.38080494999986
 31
0.0
  0
LINE
  5
176
  8
LAYER0001
  6
CONTINUOUS
 62
     2
 10
2779.5123838999998
 20
1074.3808049500001
 30
0.0
 11
2779.5123838999998
 21
924.38080494999997
 31
0.0
  0
LINE
  5
177
  8
LAYER0001
  6
CONTINUOUS
 62
     2
 10
2779.5123838999998
 20
874.38080494999986
 30
0.0
 11
2779.5123838999998
 21
824.38080494999986
 31
0.0
  0
LINE
  5
178
  8
LAYER0001
  6
CONTINUOUS
 62
     2
 10
2754.5123838999998
 20
1174.3808049500001
 30
0.0
 11
2754.5123838999998
 21
1024.3808049500001
 31
0.0
  0
LINE
  5
179
  8
LAYER0001
  6
CONTINUOUS
 62
     2
 10
2754.5123838999998
 20
974.38080494999997
 30
0.0
 11
2754.5123838999998
 21
824.38080494999986
 31
0.0
  0
LINE
  5
17A
  8
LAYER0001
  6
CONTINUOUS
 62
     2
 10
2729.5123838999998
 20
1124.3808049500001
 30
0.0
 11
2729.5123838999998
 21
974.38080494999997
 31
0.0
  0
LINE
  5
17B
  8
LAYER0001
  6
CONTINUOUS
 62
     2
 10
2729.5123838999998
 20
924.38080494999997
 30
0.0
 11
2729.5123838999998
 21
824.38080494999986
 31
0.0
  0
LINE
  5
17C
  8
LAYER0001
  6
CONTINUOUS
 62
     2
 10
2717.0123838999998
 20
1174.3808049500001
 30
0.0
 11
2717.0123838999998
 21
1024.3808049500001
 31
0.0
  0
LINE
  5
17D
  8
LAYER0001
  6
CONTINUOUS
 62
     2
 10
2717.0123838999998
 20
974.38080494999997
 30
0.0
 11
2717.0123838999998
 21
824.38080494999986
 31
0.0
  0
LINE
  5
17E
  8
LAYER0001
  6
CONTINUOUS
 62
     2
 10
2692.9273118700012
 20
1024.3808049500001
 30
0.0
 11
2692.9273118700012
 21
874.38080494999986
 31
0.0
  0
LINE
  5
17F
  8
LAYER0001
  6
CONTINUOUS
 62
     2
 10
2680.4273118699998
 20
1074.3808049500001
 30
0.0
 11
2680.4273118699998
 21
924.38080494999997
 31
0.0
  0
LINE
  5
180
  8
LAYER0001
  6
CONTINUOUS
 62
     2
 10
2680.4273118699998
 20
874.38080494999986
 30
0.0
 11
2680.4273118699998
 21
824.38080494999986
 31
0.0
  0
LINE
  5
181
  8
LAYER0001
  6
CONTINUOUS
 62
     2
 10
2655.4273118699998
 20
1174.3808049500001
 30
0.0
 11
2655.4273118699998
 21
1024.3808049500001
 31
0.0
  0
LINE
  5
182
  8
LAYER0001
  6
CONTINUOUS
 62
     2
 10
2655.4273118699998
 20
974.38080494999997
 30
0.0
 11
2655.4273118699998
 21
824.38080494999986
 31
0.0
  0
LINE
  5
183
  8
LAYER0001
  6
CONTINUOUS
 62
     2
 10
2630.4273118700012
 20
1124.3808049500001
 30
0.0
 11
2630.4273118700012
 21
974.38080494999997
 31
0.0
  0
LINE
  5
184
  8
LAYER0001
  6
CONTINUOUS
 62
     2
 10
2630.4273118700012
 20
924.38080494999997
 30
0.0
 11
2630.4273118700012
 21
824.38080494999986
 31
0.0
  0
LINE
  5
185
  8
LAYER0001
  6
CONTINUOUS
 62
     2
 10
2617.9273118699998
 20
1174.3808049500001
 30
0.0
 11
2617.9273118699998
 21
1024.3808049500001
 31
0.0
  0
LINE
  5
186
  8
LAYER0001
  6
CONTINUOUS
 62
     2
 10
2617.9273118699998
 20
974.38080494999997
 30
0.0
 11
2617.9273118699998
 21
824.38080494999986
 31
0.0
  0
LINE
  5
187
  8
LAYER0001
  6
CONTINUOUS
 62
     2
 10
2592.0123838999998
 20
1024.3808049500001
 30
0.0
 11
2592.0123838999998
 21
874.38080494999986
 31
0.0
  0
LINE
  5
188
  8
LAYER0001
  6
CONTINUOUS
 62
     2
 10
2579.5123838999998
 20
1074.3808049500001
 30
0.0
 11
2579.5123838999998
 21
924.38080494999997
 31
0.0
  0
LINE
  5
189
  8
LAYER0001
  6
CONTINUOUS
 62
     2
 10
2579.5123838999998
 20
874.38080494999986
 30
0.0
 11
2579.5123838999998
 21
824.38080494999986
 31
0.0
  0
LINE
  5
18A
  8
LAYER0001
  6
CONTINUOUS
 62
     2
 10
2554.5123838999998
 20
1174.3808049500001
 30
0.0
 11
2554.5123838999998
 21
1024.3808049500001
 31
0.0
  0
LINE
  5
18B
  8
LAYER0001
  6
CONTINUOUS
 62
     2
 10
2554.5123838999998
 20
974.38080494999997
 30
0.0
 11
2554.5123838999998
 21
824.38080494999986
 31
0.0
  0
LINE
  5
18C
  8
LAYER0001
  6
CONTINUOUS
 62
     2
 10
2529.5123838999998
 20
1124.3808049500001
 30
0.0
 11
2529.5123838999998
 21
974.38080494999997
 31
0.0
  0
LINE
  5
18D
  8
LAYER0001
  6
CONTINUOUS
 62
     2
 10
2529.5123838999998
 20
924.38080494999997
 30
0.0
 11
2529.5123838999998
 21
824.38080494999986
 31
0.0
  0
LINE
  5
18E
  8
LAYER0001
  6
CONTINUOUS
 62
     2
 10
2517.0123838999998
 20
1174.3808049500001
 30
0.0
 11
2517.0123838999998
 21
1024.3808049500001
 31
0.0
  0
LINE
  5
18F
  8
LAYER0001
  6
CONTINUOUS
 62
     2
 10
2517.0123838999998
 20
974.38080494999997
 30
0.0
 11
2517.0123838999998
 21
824.38080494999986
 31
0.0
  0
LINE
  5
190
  8
LAYER0001
  6
CONTINUOUS
 62
     2
 10
2491.0974559299998
 20
1024.3808049500001
 30
0.0
 11
2491.0974559299998
 21
874.38080494999986
 31
0.0
  0
LINE
  5
191
  8
LAYER0001
  6
CONTINUOUS
 62
     2
 10
2478.5974559299998
 20
1074.3808049500001
 30
0.0
 11
2478.5974559299998
 21
924.38080494999997
 31
0.0
  0
LINE
  5
192
  8
LAYER0001
  6
CONTINUOUS
 62
     2
 10
2478.5974559299998
 20
874.38080494999986
 30
0.0
 11
2478.5974559299998
 21
824.38080494999986
 31
0.0
  0
LINE
  5
193
  8
LAYER0001
  6
CONTINUOUS
 62
     2
 10
2453.5974559299998
 20
1174.3808049500001
 30
0.0
 11
2453.5974559299998
 21
1024.3808049500001
 31
0.0
  0
LINE
  5
194
  8
LAYER0001
  6
CONTINUOUS
 62
     2
 10
2453.5974559299998
 20
974.38080494999997
 30
0.0
 11
2453.5974559299998
 21
824.38080494999986
 31
0.0
  0
LINE
  5
195
  8
LAYER0001
  6
CONTINUOUS
 62
     2
 10
2428.5974559299998
 20
1124.3808049500001
 30
0.0
 11
2428.5974559299998
 21
974.38080494999997
 31
0.0
  0
LINE
  5
196
  8
LAYER0001
  6
CONTINUOUS
 62
     2
 10
2428.5974559299998
 20
924.38080494999997
 30
0.0
 11
2428.5974559299998
 21
824.38080494999986
 31
0.0
  0
LINE
  5
197
  8
LAYER0001
  6
CONTINUOUS
 62
     2
 10
2416.0974559299998
 20
1174.3808049500001
 30
0.0
 11
2416.0974559299998
 21
1024.3808049500001
 31
0.0
  0
LINE
  5
198
  8
LAYER0001
  6
CONTINUOUS
 62
     2
 10
2416.0974559299998
 20
974.38080494999997
 30
0.0
 11
2416.0974559299998
 21
824.38080494999986
 31
0.0
  0
LINE
  5
199
  8
LAYER0001
  6
CONTINUOUS
 62
     2
 10
2391.0974559299998
 20
1024.3808049500001
 30
0.0
 11
2391.0974559299998
 21
874.38080494999986
 31
0.0
  0
LINE
  5
19A
  8
LAYER0001
  6
CONTINUOUS
 62
     2
 10
2378.5974559299998
 20
1074.3808049500001
 30
0.0
 11
2378.5974559299998
 21
924.38080494999997
 31
0.0
  0
LINE
  5
19B
  8
LAYER0001
  6
CONTINUOUS
 62
     2
 10
2378.5974559299998
 20
874.38080494999986
 30
0.0
 11
2378.5974559299998
 21
824.38080494999986
 31
0.0
  0
LINE
  5
19C
  8
LAYER0001
  6
CONTINUOUS
 62
     2
 10
2353.5974559299998
 20
1174.3808049500001
 30
0.0
 11
2353.5974559299998
 21
1024.3808049500001
 31
0.0
  0
LINE
  5
19D
  8
LAYER0001
  6
CONTINUOUS
 62
     2
 10
2353.5974559299998
 20
974.38080494999997
 30
0.0
 11
2353.5974559299998
 21
824.38080494999986
 31
0.0
  0
LINE
  5
19E
  8
LAYER0001
  6
CONTINUOUS
 62
     2
 10
2328.5974559299998
 20
1124.3808049500001
 30
0.0
 11
2328.5974559299998
 21
974.38080494999997
 31
0.0
  0
LINE
  5
19F
  8
LAYER0001
  6
CONTINUOUS
 62
     2
 10
2328.5974559299998
 20
924.38080494999997
 30
0.0
 11
2328.5974559299998
 21
824.38080494999986
 31
0.0
  0
LINE
  5
1A0
  8
LAYER0001
  6
CONTINUOUS
 62
     2
 10
2316.0974559299998
 20
1174.3808049500001
 30
0.0
 11
2316.0974559299998
 21
1024.3808049500001
 31
0.0
  0
LINE
  5
1A1
  8
LAYER0001
  6
CONTINUOUS
 62
     2
 10
2316.0974559299998
 20
974.38080494999997
 30
0.0
 11
2316.0974559299998
 21
824.38080494999986
 31
0.0
  0
LINE
  5
1A2
  8
LAYER0001
  6
CONTINUOUS
 62
     2
 10
1404.5123839
 20
1570.194278115061
 30
0.0
 11
1404.5123839
 21
1420.194278115061
 31
0.0
  0
LINE
  5
1A3
  8
LAYER0001
  6
CONTINUOUS
 62
     2
 10
1379.5123839
 20
1520.1942781150599
 30
0.0
 11
1379.5123839
 21
1370.194278115061
 31
0.0
  0
LINE
  5
1A4
  8
LAYER0001
  6
CONTINUOUS
 62
     2
 10
1442.0123839
 20
1570.194278115061
 30
0.0
 11
1442.0123839
 21
1470.194278115061
 31
0.0
  0
LINE
  5
1A5
  8
LAYER0001
  6
CONTINUOUS
 62
     2
 10
1442.0123839
 20
1420.194278115061
 30
0.0
 11
1442.0123839
 21
1270.194278115061
 31
0.0
  0
LINE
  5
1A6
  8
LAYER0001
  6
CONTINUOUS
 62
     2
 10
1429.5123839
 20
1570.194278115061
 30
0.0
 11
1429.5123839
 21
1520.1942781150599
 31
0.0
  0
LINE
  5
1A7
  8
LAYER0001
  6
CONTINUOUS
 62
     2
 10
1429.5123839
 20
1470.194278115061
 30
0.0
 11
1429.5123839
 21
1320.194278115061
 31
0.0
  0
LINE
  5
1A8
  8
LAYER0001
  6
CONTINUOUS
 62
     2
 10
1367.0123839
 20
1570.194278115061
 30
0.0
 11
1367.0123839
 21
1420.194278115061
 31
0.0
  0
LINE
  5
1A9
  8
LAYER0001
  6
CONTINUOUS
 62
     2
 10
1404.5123839
 20
1370.194278115061
 30
0.0
 11
1404.5123839
 21
1220.194278115061
 31
0.0
  0
LINE
  5
1AA
  8
LAYER0001
  6
CONTINUOUS
 62
     2
 10
1367.0123839
 20
1370.194278115061
 30
0.0
 11
1367.0123839
 21
1220.194278115061
 31
0.0
  0
LINE
  5
1AB
  8
LAYER0001
  6
CONTINUOUS
 62
     2
 10
1379.5123839
 20
1320.194278115061
 30
0.0
 11
1379.5123839
 21
1170.194278115061
 31
0.0
  0
LINE
  5
1AC
  8
LAYER0001
  6
CONTINUOUS
 62
     2
 10
1442.0123839
 20
1220.194278115061
 30
0.0
 11
1442.0123839
 21
1070.1942781150599
 31
0.0
  0
LINE
  5
1AD
  8
LAYER0001
  6
CONTINUOUS
 62
     2
 10
1429.5123839
 20
1270.194278115061
 30
0.0
 11
1429.5123839
 21
1120.1942781150599
 31
0.0
  0
LINE
  5
1AE
  8
LAYER0001
  6
CONTINUOUS
 62
     2
 10
1442.0123839
 20
1020.19427811506
 30
0.0
 11
1442.0123839
 21
870.19427811506046
 31
0.0
  0
LINE
  5
1AF
  8
LAYER0001
  6
CONTINUOUS
 62
     2
 10
1429.5123839
 20
1070.1942781150599
 30
0.0
 11
1429.5123839
 21
920.19427811506046
 31
0.0
  0
LINE
  5
1B0
  8
LAYER0001
  6
CONTINUOUS
 62
     2
 10
1429.5123839
 20
870.19427811506046
 30
0.0
 11
1429.5123839
 21
820.19427811506046
 31
0.0
  0
LINE
  5
1B1
  8
LAYER0001
  6
CONTINUOUS
 62
     2
 10
1404.5123839
 20
1170.194278115061
 30
0.0
 11
1404.5123839
 21
1020.19427811506
 31
0.0
  0
LINE
  5
1B2
  8
LAYER0001
  6
CONTINUOUS
 62
     2
 10
1404.5123839
 20
970.19427811506046
 30
0.0
 11
1404.5123839
 21
820.19427811506046
 31
0.0
  0
LINE
  5
1B3
  8
LAYER0001
  6
CONTINUOUS
 62
     2
 10
1379.5123839
 20
1120.1942781150599
 30
0.0
 11
1379.5123839
 21
970.19427811506046
 31
0.0
  0
LINE
  5
1B4
  8
LAYER0001
  6
CONTINUOUS
 62
     2
 10
1379.5123839
 20
920.19427811506046
 30
0.0
 11
1379.5123839
 21
820.19427811506046
 31
0.0
  0
LINE
  5
1B5
  8
LAYER0001
  6
CONTINUOUS
 62
     2
 10
1367.0123839
 20
1170.194278115061
 30
0.0
 11
1367.0123839
 21
1020.19427811506
 31
0.0
  0
LINE
  5
1B6
  8
LAYER0001
  6
CONTINUOUS
 62
     2
 10
1367.0123839
 20
970.19427811506046
 30
0.0
 11
1367.0123839
 21
820.19427811506046
 31
0.0
  0
LINE
  5
1B7
  8
LAYER0003
  6
CONTINUOUS
 62
     3
 10
2554.5123838999998
 20
1624.3808049500001
 30
0.0
 11
2554.5123838999998
 21
1704.3808049500001
 31
0.0
  0
LINE
  5
1B8
  8
LAYER0003
  6
CONTINUOUS
 62
     3
 10
2554.5123838999998
 20
1704.3808049500001
 30
0.0
 11
2634.5123838999998
 21
1704.3808049500001
 31
0.0
  0
LINE
  5
1B9
  8
LAYER0003
  6
CONTINUOUS
 62
     3
 10
2634.5123838999998
 20
1704.3808049500001
 30
0.0
 11
2578.5123838999998
 21
1728.3808049500001
 31
0.0
  0
LINE
  5
1BA
  8
LAYER0003
  6
CONTINUOUS
 62
     3
 10
2578.5123838999998
 20
1728.3808049500001
 30
0.0
 11
2578.5123838999998
 21
1688.3808049500001
 31
0.0
  0
LINE
  5
1BB
  8
LAYER0003
  6
CONTINUOUS
 62
     3
 10
2554.5123838999998
 20
774.38080494999986
 30
0.0
 11
2554.5123838999998
 21
694.38080494999986
 31
0.0
  0
LINE
  5
1BC
  8
LAYER0003
  6
CONTINUOUS
 62
     3
 10
2554.5123838999998
 20
694.38080494999986
 30
0.0
 11
2634.5123838999998
 21
694.38080494999986
 31
0.0
  0
LINE
  5
1BD
  8
LAYER0003
  6
CONTINUOUS
 62
     3
 10
2634.5123838999998
 20
694.38080494999986
 30
0.0
 11
2578.5123838999998
 21
670.38080494999997
 31
0.0
  0
LINE
  5
1BE
  8
LAYER0003
  6
CONTINUOUS
 62
     3
 10
2578.5123838999998
 20
670.38080494999997
 30
0.0
 11
2578.5123838999998
 21
710.38080494999986
 31
0.0
  0
TEXT
  5
1BF
  8
LAYER0003
 62
     3
 10
2574.5123839500011
 20
1680.38080498
 30
0.0
 40
45.0
  1
Ａ
 50
270.0
 41
0.9230769230769228
 72
     5
 11
2574.5123839500011
 21
1644.38080498
 31
0.0
  0
TEXT
  5
1C0
  8
LAYER0003
 62
     3
 10
2574.5123839500011
 20
754.38080492999984
 30
0.0
 40
45.0
  1
Ａ
 50
270.0
 41
0.9230769230769228
 72
     5
 11
2574.5123839500011
 21
718.38080492999984
 31
0.0
  0
TEXT
  5
1C1
  8
0
 62
     3
 10
3186.51238319
 20
644.38080494999986
 30
0.0
 40
60.0
  1
Ａ～Ａ　断面図
 41
0.6942148760330579
 72
     5
 11
3522.51238319
 21
644.38080494999986
 31
0.0
  0
TEXT
  5
1C2
  8
0
 62
     3
 10
1284.5123834200001
 20
380.1942781150608
 30
0.0
 40
60.0
  1
参考基礎図
 41
0.7058823529411765
 72
     5
 11
1524.5123834200001
 21
380.1942781150608
 31
0.0
  0
TEXT
  5
1C3
  8
0
 62
     3
 10
2723.5
 20
30.0
 30
0.0
 40
90.0
  1
プラウッド　五連木Ｈ７５０中抜き　（ＰＷＣＡ７５７）
 41
0.4396929824561404
 72
     5
 11
3926.5
 21
30.0
 31
0.0
  0
LINE
  5
1C4
  8
LAYER0001
  6
CONTINUOUS
 62
     4
 10
1254.5123839
 20
820.19427811506046
 30
0.0
 11
1354.5123839
 21
920.19427811506046
 31
0.0
  0
LINE
  5
1C5
  8
LAYER0001
  6
CONTINUOUS
 62
     4
 10
1354.5123839
 20
900.19427811506046
 30
0.0
 11
1274.5123839
 21
820.19427811506046
 31
0.0
  0
LINE
  5
1C6
  8
LAYER0001
  6
CONTINUOUS
 62
     4
 10
1254.5123839
 20
840.19427811506102
 30
0.0
 11
1354.5123839
 21
940.19427811506068
 31
0.0
  0
LINE
  5
1C7
  8
LAYER0001
  6
CONTINUOUS
 62
     4
 10
1454.5123839
 20
820.19427811506046
 30
0.0
 11
1554.5123839
 21
920.19427811506046
 31
0.0
  0
LINE
  5
1C8
  8
LAYER0001
  6
CONTINUOUS
 62
     4
 10
1554.5123839
 20
940.19427811506068
 30
0.0
 11
1454.5123839
 21
840.19427811506102
 31
0.0
  0
LINE
  5
1C9
  8
LAYER0001
  6
CONTINUOUS
 62
     4
 10
1474.5123839
 20
820.19427811506046
 30
0.0
 11
1554.5123839
 21
900.19427811506046
 31
0.0
  0
LINE
  5
1CA
  8
LAYER0002
  6
CONTINUOUS
 62
     4
 10
912.84571722999999
 20
1170.194278115061
 30
0.0
 11
846.17905056999984
 21
1103.52761145506
 31
0.0
  0
LINE
  5
1CB
  8
LAYER0002
  6
CONTINUOUS
 62
     4
 10
862.84571722999999
 20
1103.52761145506
 30
0.0
 11
929.51238390000003
 21
1170.194278115061
 31
0.0
  0
LINE
  5
1CC
  8
LAYER0002
  6
CONTINUOUS
 62
     4
 10
854.51238390000049
 20
1111.8609447850611
 30
0.0
 11
837.84571722999988
 21
1128.52761145506
 31
0.0
  0
LINE
  5
1CD
  8
LAYER0002
  6
CONTINUOUS
 62
     4
 10
846.17905056999984
 20
1136.8609447850611
 30
0.0
 11
862.84571722999999
 21
1120.1942781150599
 31
0.0
  0
LINE
  5
1CE
  8
LAYER0002
  6
CONTINUOUS
 62
     4
 10
896.17905056999984
 20
1103.52761145506
 30
0.0
 11
962.84571722999999
 21
1170.194278115061
 31
0.0
  0
LINE
  5
1CF
  8
LAYER0002
  6
CONTINUOUS
 62
     4
 10
912.84571722999999
 20
1103.52761145506
 30
0.0
 11
979.51238389999958
 21
1170.194278115061
 31
0.0
  0
LINE
  5
1D0
  8
LAYER0002
  6
CONTINUOUS
 62
     4
 10
912.84571722999999
 20
1120.1942781150599
 30
0.0
 11
896.17905056999984
 21
1136.8609447850611
 31
0.0
  0
LINE
  5
1D1
  8
LAYER0002
  6
CONTINUOUS
 62
     4
 10
904.51238390000003
 20
1145.194278115061
 30
0.0
 11
921.17905056999984
 21
1128.52761145506
 31
0.0
  0
LINE
  5
1D2
  8
LAYER0002
  6
CONTINUOUS
 62
     4
 10
971.17905056999984
 20
1128.52761145506
 30
0.0
 11
954.51238390000003
 21
1145.194278115061
 31
0.0
  0
LINE
  5
1D3
  8
LAYER0002
  6
CONTINUOUS
 62
     4
 10
962.84571722999999
 20
1153.52761145506
 30
0.0
 11
979.51238389999958
 21
1136.8609447850611
 31
0.0
  0
LINE
  5
1D4
  8
LAYER0002
  6
CONTINUOUS
 62
     4
 10
2304.5123838999998
 20
2068.3808049499999
 30
0.0
 11
2304.5123838999998
 21
1895.3808049500001
 31
0.0
  0
LINE
  5
1D5
  8
LAYER0002
  6
CONTINUOUS
 62
     4
 10
2804.5123838999998
 20
2068.3808049499999
 30
0.0
 11
2804.5123838999998
 21
1895.3808049500001
 31
0.0
  0
LINE
  5
1D6
  8
LAYER0002
  6
CONTINUOUS
 62
     4
 10
3304.5123839000012
 20
1580.3808049500001
 30
0.0
 11
3304.5123839000012
 21
1703.3808049500001
 31
0.0
  0
LINE
  5
1D7
  8
LAYER0002
  6
CONTINUOUS
 62
     4
 10
3404.5123839000012
 20
1580.3808049500001
 30
0.0
 11
3404.5123839000012
 21
1703.3808049500001
 31
0.0
  0
LINE
  5
1D8
  8
LAYER0002
  6
CONTINUOUS
 62
     4
 10
2810.5123838999998
 20
1574.3808049500001
 30
0.0
 11
2933.5123838999998
 21
1574.3808049500001
 31
0.0
  0
LINE
  5
1D9
  8
LAYER0002
  6
CONTINUOUS
 62
     4
 10
2810.5123838999998
 20
824.38080494999986
 30
0.0
 11
2933.5123838999998
 21
824.38080494999986
 31
0.0
  0
LINE
  5
1DA
  8
LAYER0002
  6
CONTINUOUS
 62
     4
 10
715.51238390000015
 20
1570.194278115061
 30
0.0
 11
675.51238390000026
 21
1570.194278115061
 31
0.0
  0
LINE
  5
1DB
  8
LAYER0002
  6
CONTINUOUS
 62
     4
 10
798.51238390000015
 20
1170.194278115061
 30
0.0
 11
675.51238390000026
 21
1170.194278115061
 31
0.0
  0
LINE
  5
1DC
  8
LAYER0002
  6
CONTINUOUS
 62
     4
 10
1248.5123839
 20
1070.1942781150599
 30
0.0
 11
675.51238390000026
 21
1070.1942781150599
 31
0.0
  0
LINE
  5
1DD
  8
LAYER0002
  6
CONTINUOUS
 62
     4
 10
1198.5123839
 20
820.19427811506046
 30
0.0
 11
675.51238390000026
 21
820.19427811506046
 31
0.0
  0
LINE
  5
1DE
  8
LAYER0002
  6
CONTINUOUS
 62
     4
 10
715.51238390000015
 20
770.19427811506068
 30
0.0
 11
675.51238390000026
 21
770.19427811506068
 31
0.0
  0
LINE
  5
1DF
  8
LAYER0002
  6
CONTINUOUS
 62
     4
 10
1198.5123839
 20
770.19427811506068
 30
0.0
 11
555.51238390000015
 21
770.19427811506068
 31
0.0
  0
LINE
  5
1E0
  8
LAYER0002
  6
CONTINUOUS
 62
     4
 10
1348.5123839
 20
1570.194278115061
 30
0.0
 11
555.51238390000015
 21
1570.194278115061
 31
0.0
  0
LINE
  5
1E1
  8
LAYER0002
  6
CONTINUOUS
 62
     4
 10
1354.5123839
 20
1576.194278115061
 30
0.0
 11
1354.5123839
 21
1699.1942781150599
 31
0.0
  0
LINE
  5
1E2
  8
LAYER0002
  6
CONTINUOUS
 62
     4
 10
1454.5123839
 20
1576.194278115061
 30
0.0
 11
1454.5123839
 21
1699.1942781150599
 31
0.0
  0
LINE
  5
1E3
  8
LAYER0002
  6
CONTINUOUS
 62
     4
 10
1004.5123839
 20
681.19427811506046
 30
0.0
 11
1004.5123839
 21
641.19427811506068
 31
0.0
  0
LINE
  5
1E4
  8
LAYER0002
  6
CONTINUOUS
 62
     4
 10
1204.5123839
 20
764.19427811506102
 30
0.0
 11
1204.5123839
 21
641.19427811506068
 31
0.0
  0
LINE
  5
1E5
  8
LAYER0002
  6
CONTINUOUS
 62
     4
 10
1254.5123839
 20
764.19427811506102
 30
0.0
 11
1254.5123839
 21
641.19427811506068
 31
0.0
  0
LINE
  5
1E6
  8
LAYER0002
  6
CONTINUOUS
 62
     4
 10
1554.5123839
 20
764.19427811506102
 30
0.0
 11
1554.5123839
 21
641.19427811506068
 31
0.0
  0
LINE
  5
1E7
  8
LAYER0002
  6
CONTINUOUS
 62
     4
 10
1604.5123839
 20
764.19427811506102
 30
0.0
 11
1604.5123839
 21
641.19427811506068
 31
0.0
  0
LINE
  5
1E8
  8
LAYER0002
  6
CONTINUOUS
 62
     4
 10
1804.5123839
 20
681.19427811506046
 30
0.0
 11
1804.5123839
 21
641.19427811506068
 31
0.0
  0
LINE
  5
1E9
  8
LAYER0002
  6
CONTINUOUS
 62
     4
 10
1804.5123839
 20
1164.1942781150599
 30
0.0
 11
1804.5123839
 21
521.19427811506057
 31
0.0
  0
LINE
  5
1EA
  8
LAYER0002
  6
CONTINUOUS
 62
     4
 10
1004.5123839
 20
1164.1942781150599
 30
0.0
 11
1004.5123839
 21
521.19427811506057
 31
0.0
  0
LINE
  5
1EB
  8
LAYER0002
  6
CONTINUOUS
 62
     4
 10
2304.5123838999998
 20
1904.3808049500001
 30
0.0
 11
2804.5123838999998
 21
1904.3808049500001
 31
0.0
  0
INSERT
  5
1EC
  8
LAYER0002
  6
CONTINUOUS
 62
     4
  2
_OPEN30
 10
2304.5123838999998
 20
1904.3808049500001
 30
0.0
 41
29.999976109999999
 42
30.00008592
 50
180.0
  0
INSERT
  5
1ED
  8
LAYER0002
  6
CONTINUOUS
 62
     4
  2
_OPEN30
 10
2804.5123838999998
 20
1904.3808049500001
 30
0.0
 41
29.999976109999999
 42
30.00008592
  0
LINE
  5
1EE
  8
LAYER0002
  6
CONTINUOUS
 62
     4
 10
3304.5123839000012
 20
1694.3808049500001
 30
0.0
 11
3404.5123839000012
 21
1694.3808049500001
 31
0.0
  0
INSERT
  5
1EF
  8
LAYER0002
  6
CONTINUOUS
 62
     4
  2
_OPEN30
 10
3304.5123839000012
 20
1694.3808049500001
 30
0.0
 41
29.999976109999999
 42
30.00008592
 50
180.0
  0
INSERT
  5
1F0
  8
LAYER0002
  6
CONTINUOUS
 62
     4
  2
_OPEN30
 10
3404.5123839000012
 20
1694.3808049500001
 30
0.0
 41
29.999976109999999
 42
30.00008592
  0
LINE
  5
1F1
  8
LAYER0002
  6
CONTINUOUS
 62
     4
 10
2924.5123838999998
 20
1574.3808049500001
 30
0.0
 11
2924.5123838999998
 21
824.38080494999986
 31
0.0
  0
INSERT
  5
1F2
  8
LAYER0002
  6
CONTINUOUS
 62
     4
  2
_OPEN30
 10
2924.5123838999998
 20
1574.3808049500001
 30
0.0
 41
29.999976109999999
 42
30.00008592
 50
90.0
  0
INSERT
  5
1F3
  8
LAYER0002
  6
CONTINUOUS
 62
     4
  2
_OPEN30
 10
2924.5123838999998
 20
824.38080494999986
 30
0.0
 41
29.999976109999999
 42
30.00008592
 50
270.0
  0
LINE
  5
1F4
  8
LAYER0002
  6
CONTINUOUS
 62
     4
 10
684.51238390000015
 20
1570.194278115061
 30
0.0
 11
684.51238390000015
 21
1170.194278115061
 31
0.0
  0
INSERT
  5
1F5
  8
LAYER0002
  6
CONTINUOUS
 62
     4
  2
_OPEN30
 10
684.51238390000015
 20
1570.194278115061
 30
0.0
 41
29.999976109999999
 42
30.00008592
 50
90.0
  0
INSERT
  5
1F6
  8
LAYER0002
  6
CONTINUOUS
 62
     4
  2
_OPEN30
 10
684.51238390000015
 20
1170.194278115061
 30
0.0
 41
29.999976109999999
 42
30.00008592
 50
270.0
  0
LINE
  5
1F7
  8
LAYER0002
  6
CONTINUOUS
 62
     4
 10
684.51238390000015
 20
1170.194278115061
 30
0.0
 11
684.51238390000015
 21
1070.1942781150599
 31
0.0
  0
INSERT
  5
1F8
  8
LAYER0002
  6
CONTINUOUS
 62
     4
  2
_OPEN30
 10
684.51238390000015
 20
1170.194278115061
 30
0.0
 41
29.999976109999999
 42
30.00008592
 50
90.0
  0
INSERT
  5
1F9
  8
LAYER0002
  6
CONTINUOUS
 62
     4
  2
_OPEN30
 10
684.51238390000015
 20
1070.1942781150599
 30
0.0
 41
29.999976109999999
 42
30.00008592
 50
270.0
  0
LINE
  5
1FA
  8
LAYER0002
  6
CONTINUOUS
 62
     4
 10
684.51238390000015
 20
1070.1942781150599
 30
0.0
 11
684.51238390000015
 21
820.19427811506046
 31
0.0
  0
INSERT
  5
1FB
  8
LAYER0002
  6
CONTINUOUS
 62
     4
  2
_OPEN30
 10
684.51238390000015
 20
1070.1942781150599
 30
0.0
 41
29.999976109999999
 42
30.00008592
 50
90.0
  0
INSERT
  5
1FC
  8
LAYER0002
  6
CONTINUOUS
 62
     4
  2
_OPEN30
 10
684.51238390000015
 20
820.19427811506046
 30
0.0
 41
29.999976109999999
 42
30.00008592
 50
270.0
  0
LINE
  5
1FD
  8
LAYER0002
  6
CONTINUOUS
 62
     4
 10
684.51238390000015
 20
820.19427811506046
 30
0.0
 11
684.51238390000015
 21
770.19427811506068
 31
0.0
  0
INSERT
  5
1FE
  8
LAYER0002
  6
CONTINUOUS
 62
     4
  2
_OPEN30
 10
684.51238390000015
 20
820.19427811506046
 30
0.0
 41
29.999976109999999
 42
30.00008592
 50
90.0
  0
INSERT
  5
1FF
  8
LAYER0002
  6
CONTINUOUS
 62
     4
  2
_OPEN30
 10
684.51238390000015
 20
770.19427811506068
 30
0.0
 41
29.999976109999999
 42
30.00008592
 50
270.0
  0
LINE
  5
200
  8
LAYER0002
  6
CONTINUOUS
 62
     4
 10
564.51238390000015
 20
770.19427811506068
 30
0.0
 11
564.51238390000015
 21
1570.194278115061
 31
0.0
  0
INSERT
  5
201
  8
LAYER0002
  6
CONTINUOUS
 62
     4
  2
_OPEN30
 10
564.51238390000015
 20
770.19427811506068
 30
0.0
 41
29.999976109999999
 42
30.00008592
 50
270.0
  0
INSERT
  5
202
  8
LAYER0002
  6
CONTINUOUS
 62
     4
  2
_OPEN30
 10
564.51238390000015
 20
1570.194278115061
 30
0.0
 41
29.999976109999999
 42
30.00008592
 50
90.0
  0
LINE
  5
203
  8
LAYER0002
  6
CONTINUOUS
 62
     4
 10
1354.5123839
 20
1690.1942781150599
 30
0.0
 11
1454.5123839
 21
1690.1942781150599
 31
0.0
  0
INSERT
  5
204
  8
LAYER0002
  6
CONTINUOUS
 62
     4
  2
_OPEN30
 10
1354.5123839
 20
1690.1942781150599
 30
0.0
 41
29.999976109999999
 42
30.00008592
 50
180.0
  0
INSERT
  5
205
  8
LAYER0002
  6
CONTINUOUS
 62
     4
  2
_OPEN30
 10
1454.5123839
 20
1690.1942781150599
 30
0.0
 41
29.999976109999999
 42
30.00008592
  0
LINE
  5
206
  8
LAYER0002
  6
CONTINUOUS
 62
     4
 10
1004.5123839
 20
650.19427811506046
 30
0.0
 11
1204.5123839
 21
650.19427811506046
 31
0.0
  0
INSERT
  5
207
  8
LAYER0002
  6
CONTINUOUS
 62
     4
  2
_OPEN30
 10
1004.5123839
 20
650.19427811506046
 30
0.0
 41
29.999976109999999
 42
30.00008592
 50
180.0
  0
INSERT
  5
208
  8
LAYER0002
  6
CONTINUOUS
 62
     4
  2
_OPEN30
 10
1204.5123839
 20
650.19427811506046
 30
0.0
 41
29.999976109999999
 42
30.00008592
  0
LINE
  5
209
  8
LAYER0002
  6
CONTINUOUS
 62
     4
 10
1204.5123839
 20
650.19427811506046
 30
0.0
 11
1254.5123839
 21
650.19427811506046
 31
0.0
  0
INSERT
  5
20A
  8
LAYER0002
  6
CONTINUOUS
 62
     4
  2
_OPEN30
 10
1204.5123839
 20
650.19427811506046
 30
0.0
 41
29.999976109999999
 42
30.00008592
 50
180.0
  0
INSERT
  5
20B
  8
LAYER0002
  6
CONTINUOUS
 62
     4
  2
_OPEN30
 10
1254.5123839
 20
650.19427811506046
 30
0.0
 41
29.999976109999999
 42
30.00008592
  0
LINE
  5
20C
  8
LAYER0002
  6
CONTINUOUS
 62
     4
 10
1254.5123839
 20
650.19427811506046
 30
0.0
 11
1554.5123839
 21
650.19427811506046
 31
0.0
  0
INSERT
  5
20D
  8
LAYER0002
  6
CONTINUOUS
 62
     4
  2
_OPEN30
 10
1254.5123839
 20
650.19427811506046
 30
0.0
 41
29.999976109999999
 42
30.00008592
 50
180.0
  0
INSERT
  5
20E
  8
LAYER0002
  6
CONTINUOUS
 62
     4
  2
_OPEN30
 10
1554.5123839
 20
650.19427811506046
 30
0.0
 41
29.999976109999999
 42
30.00008592
  0
LINE
  5
20F
  8
LAYER0002
  6
CONTINUOUS
 62
     4
 10
1554.5123839
 20
650.19427811506046
 30
0.0
 11
1604.5123839
 21
650.19427811506046
 31
0.0
  0
INSERT
  5
210
  8
LAYER0002
  6
CONTINUOUS
 62
     4
  2
_OPEN30
 10
1554.5123839
 20
650.19427811506046
 30
0.0
 41
29.999976109999999
 42
30.00008592
 50
180.0
  0
INSERT
  5
211
  8
LAYER0002
  6
CONTINUOUS
 62
     4
  2
_OPEN30
 10
1604.5123839
 20
650.19427811506046
 30
0.0
 41
29.999976109999999
 42
30.00008592
  0
LINE
  5
212
  8
LAYER0002
  6
CONTINUOUS
 62
     4
 10
1604.5123839
 20
650.19427811506046
 30
0.0
 11
1804.5123839
 21
650.19427811506046
 31
0.0
  0
INSERT
  5
213
  8
LAYER0002
  6
CONTINUOUS
 62
     4
  2
_OPEN30
 10
1604.5123839
 20
650.19427811506046
 30
0.0
 41
29.999976109999999
 42
30.00008592
 50
180.0
  0
INSERT
  5
214
  8
LAYER0002
  6
CONTINUOUS
 62
     4
  2
_OPEN30
 10
1804.5123839
 20
650.19427811506046
 30
0.0
 41
29.999976109999999
 42
30.00008592
  0
LINE
  5
215
  8
LAYER0002
  6
CONTINUOUS
 62
     4
 10
1804.5123839
 20
530.19427811506057
 30
0.0
 11
1004.5123839
 21
530.19427811506057
 31
0.0
  0
INSERT
  5
216
  8
LAYER0002
  6
CONTINUOUS
 62
     4
  2
_OPEN30
 10
1804.5123839
 20
530.19427811506057
 30
0.0
 41
29.999976109999999
 42
30.00008592
  0
INSERT
  5
217
  8
LAYER0002
  6
CONTINUOUS
 62
     4
  2
_OPEN30
 10
1004.5123839
 20
530.19427811506057
 30
0.0
 41
29.999976109999999
 42
30.00008592
 50
180.0
  0
LINE
  5
218
  8
LAYER0014
  6
CONTINUOUS
 62
     7
 10
4080.0
 20
150.0
 30
0.0
 11
2580.0
 21
150.0
 31
0.0
  0
LINE
  5
219
  8
LAYER0014
  6
CONTINUOUS
 62
     7
 10
4080.0
 20
225.0
 30
0.0
 11
2580.0
 21
225.0
 31
0.0
  0
LINE
  5
21A
  8
LAYER0014
  6
CONTINUOUS
 62
     7
 10
4080.0
 20
225.0
 30
0.0
 11
2580.0
 21
225.0
 31
0.0
  0
LINE
  5
21B
  8
LAYER0014
  6
CONTINUOUS
 62
     7
 10
4080.0
 20
300.0
 30
0.0
 11
2580.0
 21
300.0
 31
0.0
  0
LINE
  5
21C
  8
LAYER0014
  6
CONTINUOUS
 62
     7
 10
3705.0
 20
300.0
 30
0.0
 11
3705.0
 21
150.0
 31
0.0
  0
LINE
  5
21D
  8
LAYER0014
  6
CONTINUOUS
 62
     7
 10
3180.0
 20
300.0
 30
0.0
 11
3180.0
 21
150.0
 31
0.0
  0
LINE
  5
21E
  8
LAYER0014
  6
CONTINUOUS
 62
     7
 10
2880.0
 20
300.0
 30
0.0
 11
2880.0
 21
150.0
 31
0.0
  0
LINE
  5
21F
  8
LAYER0014
  6
CONTINUOUS
 62
     7
 10
2580.0
 20
300.0
 30
0.0
 11
2580.0
 21
0.0
 31
0.0
  0
LINE
  5
220
  8
LAYER0014
  6
CONTINUOUS
 62
     7
 10
0.0
 20
0.0
 30
0.0
 11
0.0
 21
2700.0
 31
0.0
  0
LINE
  5
221
  8
LAYER0014
  6
CONTINUOUS
 62
     7
 10
0.0
 20
2700.0
 30
0.0
 11
4080.0
 21
2700.0
 31
0.0
  0
LINE
  5
222
  8
LAYER0014
  6
CONTINUOUS
 62
     7
 10
4080.0
 20
2700.0
 30
0.0
 11
4080.0
 21
0.0
 31
0.0
  0
LINE
  5
223
  8
LAYER0014
  6
CONTINUOUS
 62
     7
 10
4080.0
 20
0.0
 30
0.0
 11
0.0
 21
0.0
 31
0.0
  0
TEXT
  5
224
  8
LAYER0014
 62
     4
 10
2658.0
 20
240.0
 30
0.0
 40
45.0
  1
品　　名
 41
0.7164179104477614
 72
     5
 11
2802.0
 21
240.0
 31
0.0
  0
TEXT
  5
225
  8
LAYER0014
 62
     4
 10
2958.0
 20
240.0
 30
0.0
 40
45.0
  1
品　　番
 41
0.7058823529411766
 72
     5
 11
3102.0
 21
240.0
 31
0.0
  0
TEXT
  5
226
  8
LAYER0001
 62
     4
 10
2904.0
 20
165.0
 30
0.0
 40
45.0
  1
ＰＷＣＡ５７５
 41
0.7000000000000002
 72
     5
 11
3156.0
 21
165.0
 31
0.0
  0
TEXT
  5
227
  8
LAYER0001
 62
     4
 10
3190.5
 20
165.0
 30
0.0
 40
45.0
  1
\U+03C6１００\U+00D7Ｗ５００\U+00D7Ｈ７５０
 41
0.6857142857142859
 72
     5
 11
3694.5
 21
165.0
 31
0.0
  0
TEXT
  5
228
  8
LAYER0001
 62
     4
 10
3298.5
 20
240.0
 30
0.0
 40
45.0
  1
呼称寸法（ｍｍ）
 41
0.7272727272727271
 72
     5
 11
3586.5
 21
240.0
 31
0.0
  0
TEXT
  5
229
  8
LAYER0001
 62
     4
 10
3748.5
 20
240.0
 30
0.0
 40
45.0
  1
参考重量（ｋｇ）
 41
0.7272727272727271
 72
     5
 11
4036.5
 21
240.0
 31
0.0
  0
TEXT
  5
22A
  8
LAYER0001
 62
     4
 10
3820.5
 20
165.0
 30
0.0
 40
45.0
  1
２０．０
 41
0.7384615384615456
 72
     5
 11
3964.5000000000018
 21
165.0
 31
0.0
  0
TEXT
  5
22B
  8
0
 62
     4
 10
2604.0
 20
165.0
 30
0.0
 40
45.0
  1
五連木　　７５
 41
0.7
 72
     5
 11
2856.0
 21
165.0
 31
0.0
  0
TEXT
  5
22C
  8
0
 62
     4
 10
2730.0
 20
165.0
 30
0.0
 40
45.0
  1
A
 41
1.2
 72
     5
 11
2766.0
 21
165.0
 31
0.0
  0
CIRCLE
  5
22F
  8
0
  6
CONTINUOUS
 62
     4
 10
2748.0
 20
187.5
 30
0.0
 40
30.0
  0
TEXT
  5
230
  8
LAYER0002
 62
     4
 10
2500.5123833600001
 20
1913.3808049500001
 30
0.0
 40
45.0
  1
500
 41
1.028571428571428
 72
     5
 11
2608.5123833600001
 21
1913.3808049500001
 31
0.0
  0
TEXT
  5
231
  8
LAYER0002
 62
     4
 10
3300.5123833600001
 20
1703.3808049500001
 30
0.0
 40
45.0
  1
100
 41
1.1999999999999991
 72
     5
 11
3408.5123833600001
 21
1703.3808049500001
 31
0.0
  0
TEXT
  5
232
  8
LAYER0002
 62
     4
 10
2915.5123838999998
 20
1148.3808047699999
 30
0.0
 40
45.0
  1
750
 50
90.0
 41
0.9599999999999997
 72
     5
 11
2915.5123838999998
 21
1256.3808047699999
 31
0.0
  0
TEXT
  5
233
  8
LAYER0002
 62
     4
 10
675.51238390000026
 20
1319.19427793506
 30
0.0
 40
45.0
  1
400
 50
90.0
 41
1.028571428571426
 72
     5
 11
675.51238390000026
 21
1427.19427793506
 31
0.0
  0
TEXT
  5
234
  8
LAYER0002
 62
     4
 10
675.51238390000026
 20
1069.19427793506
 30
0.0
 40
45.0
  1
100
 50
90.0
 41
1.1999999999999991
 72
     5
 11
675.51238390000026
 21
1177.19427793506
 31
0.0
  0
TEXT
  5
235
  8
LAYER0002
 62
     4
 10
675.51238390000026
 20
894.19427793506077
 30
0.0
 40
45.0
  1
250
 50
90.0
 41
0.959999999999993
 72
     5
 11
675.51238390000026
 21
1002.19427793506
 31
0.0
  0
TEXT
  5
236
  8
LAYER0002
 62
     4
 10
675.51238390000026
 20
759.1942778550607
 30
0.0
 40
45.0
  1
50
 50
90.0
 41
1.0666666666666711
 72
     5
 11
675.51238390000026
 21
831.19427785506105
 31
0.0
  0
TEXT
  5
237
  8
LAYER0002
 62
     4
 10
555.51238390000015
 20
1119.19427793506
 30
0.0
 40
45.0
  1
800
 50
90.0
 41
1.028571428571428
 72
     5
 11
555.51238390000015
 21
1227.19427793506
 31
0.0
  0
TEXT
  5
238
  8
LAYER0002
 62
     4
 10
1350.5123833600001
 20
1699.1942781150599
 30
0.0
 40
45.0
  1
100
 41
1.2
 72
     5
 11
1458.5123833600001
 21
1699.1942781150599
 31
0.0
  0
TEXT
  5
239
  8
LAYER0002
 62
     4
 10
1050.5123833600001
 20
659.19427811506046
 30
0.0
 40
45.0
  1
200
 41
1.028571428571428
 72
     5
 11
1158.5123833600001
 21
659.19427811506046
 31
0.0
  0
TEXT
  5
23A
  8
LAYER0002
 62
     4
 10
1193.5123836299999
 20
659.19427811506046
 30
0.0
 40
45.0
  1
50
 41
1.066666666666666
 72
     5
 11
1265.5123836299999
 21
659.19427811506046
 31
0.0
  0
TEXT
  5
23B
  8
LAYER0002
 62
     4
 10
1350.5123833600001
 20
659.19427811506046
 30
0.0
 40
45.0
  1
300
 41
1.028571428571428
 72
     5
 11
1458.5123833600001
 21
659.19427811506046
 31
0.0
  0
TEXT
  5
23C
  8
LAYER0002
 62
     4
 10
1543.5123836299999
 20
659.19427811506046
 30
0.0
 40
45.0
  1
50
 41
1.066666666666666
 72
     5
 11
1615.5123836299999
 21
659.19427811506046
 31
0.0
  0
TEXT
  5
23D
  8
LAYER0002
 62
     4
 10
1650.5123833600001
 20
659.19427811506046
 30
0.0
 40
45.0
  1
200
 41
1.028571428571428
 72
     5
 11
1758.5123833600001
 21
659.19427811506046
 31
0.0
  0
TEXT
  5
23E
  8
LAYER0002
 62
     4
 10
1350.5123833600001
 20
539.1942781150608
 30
0.0
 40
45.0
  1
800
 41
1.028571428571428
 72
     5
 11
1458.5123833600001
 21
539.1942781150608
 31
0.0
  0
INSERT
  5
23F
  8
0
  6
CONTINUOUS
  2
GROUP_1
 10
2002.5
 20
1640.8134731650609
 30
0.0
  0
INSERT
  5
240
  8
0
  6
CONTINUOUS
  2
GROUP_2
 10
2002.5
 20
1640.8134731650609
 30
0.0
  0
TEXT
  5
43C
  8
LAYER0002
 62
     4
 10
372.2911044267189
 20
25.31581278938916
 30
0.0
 40
44.448979549788007
  1
●寸法・重量に関しては、全て標準値です。
 41
0.7323647552057742
 72
     5
 11
1125.347405187588
 21
25.31581278938916
 31
0.0
  0
TEXT
  5
43D
  8
LAYER0002
 62
     4
 10
372.3722967576673
 20
94.985649559939233
 30
0.0
 40
44.448979549788007
  1
●擬木仕様　外観：クヌギ模様　　色：ダークブラウン
 41
0.740840920980038
 72
     5
 11
1349.2844441642051
 21
94.985649559939233
 31
0.0
  0
TEXT
  5
43E
  8
LAYER0002
 62
     4
 10
371.34585496886439
 20
164.58021817088309
 30
0.0
 40
44.448979549788007
  1
●賠償責任保険加入品（ＰＬ保険）
 41
0.7607023207088206
 72
     5
 11
993.49478586745761
 21
164.58021817088309
 31
0.0
  0
TEXT
  5
43F
  8
LAYER0002
 62
     4
 10
372.1550792860894
 20
234.22617243637521
 30
0.0
 40
44.448979549788007
  1
●樹脂部は再生プラスチック100％（エコマーク認定品）
 41
0.7266624093017833
 72
     5
 11
1351.90362392928
 21
234.22617243637521
 31
0.0
  0
LINE
  5
440
  8
0
  6
CONTINUOUS
 10
0.0000024406826924
 20
300.00000000000068
 30
0.0
 11
2580.0
 21
300.0
 31
0.0
  0
TEXT
  5
441
  8
LAYER0002
 62
     4
 10
28.603810454007998
 20
234.22617243637521
 30
0.0
 40
44.448979549788007
  1
《特記仕様》
 41
0.8654848667936059
 72
     5
 11
285.06993808574123
 21
234.22617243637521
 31
0.0
  0
ENDSEC
  0
EOF
